  0
SECTION
  2
HEADER
  9
$ACADVER
  1
AC1009
  9
$INSBASE
 10
0.0
 20
0.0
 30
0.0
  9
$EXTMIN
 10
-612.58239117460562
 20
-1564.3283408433331
 30
-0.0015258207003583
  9
$EXTMAX
 10
2087.5824037474608
 20
2450.1226251051271
 30
0.0000000349246037
  9
$LIMMIN
 10
0.0
 20
0.0
  9
$LIMMAX
 10
0.0
 20
0.0
  9
$ORTHOMODE
 70
     0
  9
$REGENMODE
 70
     1
  9
$FILLMODE
 70
     1
  9
$QTEXTMODE
 70
     0
  9
$MIRRTEXT
 70
     1
  9
$DRAGMODE
 70
     2
  9
$LTSCALE
 40
76.200000000000003
  9
$OSMODE
 70
   231
  9
$ATTMODE
 70
     1
  9
$TEXTSIZE
 40
0.0
  9
$TRACEWID
 40
1.0
  9
$TEXTSTYLE
  7
STANDARD
  9
$CLAYER
  8
DATA
  9
$CELTYPE
  6
BYLAYER
  9
$CECOLOR
 62
   256
  9
$DIMSCALE
 40
1.0
  9
$DIMASZ
 40
0.18
  9
$DIMEXO
 40
0.0625
  9
$DIMDLI
 40
0.38
  9
$DIMRND
 40
0.0
  9
$DIMDLE
 40
0.0
  9
$DIMEXE
 40
0.18
  9
$DIMTP
 40
0.0
  9
$DIMTM
 40
0.0
  9
$DIMTXT
 40
0.18
  9
$DIMCEN
 40
0.09
  9
$DIMTSZ
 40
0.0
  9
$DIMTOL
 70
     0
  9
$DIMLIM
 70
     0
  9
$DIMTIH
 70
     1
  9
$DIMTOH
 70
     1
  9
$DIMSE1
 70
     0
  9
$DIMSE2
 70
     0
  9
$DIMTAD
 70
     0
  9
$DIMZIN
 70
     0
  9
$DIMBLK
  1

  9
$DIMASO
 70
     1
  9
$DIMSHO
 70
     1
  9
$DIMPOST
  1

  9
$DIMAPOST
  1

  9
$DIMALT
 70
     0
  9
$DIMALTD
 70
     2
  9
$DIMALTF
 40
25.399999999999999
  9
$DIMLFAC
 40
1.0
  9
$DIMTOFL
 70
     0
  9
$DIMTVP
 40
0.0
  9
$DIMTIX
 70
     0
  9
$DIMSOXD
 70
     0
  9
$DIMSAH
 70
     0
  9
$DIMBLK1
  1

  9
$DIMBLK2
  1

  9
$DIMSTYLE
  2
STANDARD
  9
$DIMCLRD
 70
     0
  9
$DIMCLRE
 70
     0
  9
$DIMCLRT
 70
     0
  9
$DIMTFAC
 40
1.0
  9
$DIMGAP
 40
0.09
  9
$LUNITS
 70
     2
  9
$LUPREC
 70
     4
  9
$SKETCHINC
 40
0.1
  9
$FILLETRAD
 40
0.0
  9
$AUNITS
 70
     0
  9
$AUPREC
 70
     0
  9
$MENU
  1
acad
  9
$ELEVATION
 40
0.0
  9
$PELEVATION
 40
0.0
  9
$THICKNESS
 40
0.0
  9
$LIMCHECK
 70
     0
  9
$BLIPMODE
 70
     0
  9
$CHAMFERA
 40
0.0
  9
$CHAMFERB
 40
0.0
  9
$SKPOLY
 70
     0
  9
$TDCREATE
 40
2454439.8310532412
  9
$TDUPDATE
 40
2454439.8314267248
  9
$TDINDWG
 40
0.0002848495
  9
$TDUSRTIMER
 40
0.0002846644
  9
$USRTIMER
 70
     1
  9
$ANGBASE
 50
0.0
  9
$ANGDIR
 70
     0
  9
$PDMODE
 70
     1
  9
$PDSIZE
 40
-2.0
  9
$PLINEWID
 40
0.0
  9
$COORDS
 70
     1
  9
$SPLFRAME
 70
     0
  9
$SPLINETYPE
 70
     6
  9
$SPLINESEGS
 70
     8
  9
$ATTDIA
 70
     0
  9
$ATTREQ
 70
     1
  9
$HANDLING
 70
     1
  9
$HANDSEED
  5
306
  9
$SURFTAB1
 70
     6
  9
$SURFTAB2
 70
     6
  9
$SURFTYPE
 70
     6
  9
$SURFU
 70
     6
  9
$SURFV
 70
     6
  9
$UCSNAME
  2

  9
$UCSORG
 10
0.0
 20
0.0
 30
0.0
  9
$UCSXDIR
 10
1.0
 20
0.0
 30
0.0
  9
$UCSYDIR
 10
0.0
 20
1.0
 30
0.0
  9
$PUCSNAME
  2

  9
$PUCSORG
 10
0.0
 20
0.0
 30
0.0
  9
$PUCSXDIR
 10
1.0
 20
0.0
 30
0.0
  9
$PUCSYDIR
 10
0.0
 20
1.0
 30
0.0
  9
$USERI1
 70
     0
  9
$USERI2
 70
     0
  9
$USERI3
 70
     0
  9
$USERI4
 70
     0
  9
$USERI5
 70
     0
  9
$USERR1
 40
0.0
  9
$USERR2
 40
0.0
  9
$USERR3
 40
0.0
  9
$USERR4
 40
0.0
  9
$USERR5
 40
0.0
  9
$WORLDVIEW
 70
     1
  9
$SHADEDGE
 70
     3
  9
$SHADEDIF
 70
    70
  9
$TILEMODE
 70
     1
  9
$MAXACTVP
 70
    64
  9
$PLIMCHECK
 70
     0
  9
$PEXTMIN
 10
1.0000000000000000E+020
 20
1.0000000000000000E+020
 30
1.0000000000000000E+020
  9
$PEXTMAX
 10
-1.0000000000000000E+020
 20
-1.0000000000000000E+020
 30
-1.0000000000000000E+020
  9
$PLIMMIN
 10
0.0
 20
0.0
  9
$PLIMMAX
 10
12.0
 20
9.0
  9
$UNITMODE
 70
     0
  9
$VISRETAIN
 70
     0
  9
$PLINEGEN
 70
     1
  9
$PSLTSCALE
 70
     0
  0
ENDSEC
  0
SECTION
  2
TABLES
  0
TABLE
  2
VPORT
 70
     1
  0
VPORT
  2
*ACTIVE
 70
     0
 10
0.0
 20
0.0
 11
1.0
 21
1.0
 12
737.50000628642783
 22
442.89714213089673
 13
0.0
 23
0.0
 14
1.0
 24
1.0
 15
0.0
 25
0.0
 16
0.0
 26
0.0
 36
1.0
 17
0.0
 27
0.0
 37
0.0
 40
4047.7659117239659
 41
1.6703601108033239
 42
50.0
 43
0.0
 44
0.0
 50
0.0
 51
0.0
 71
     0
 72
  2000
 73
     1
 74
     1
 75
     0
 76
     0
 77
     0
 78
     0
  0
ENDTAB
  0
TABLE
  2
LTYPE
 70
    11
  0
LTYPE
  2
CONTINUOUS
 70
     0
  3
Solid line
 72
    65
 73
     0
 40
0.0
  0
ENDTAB
  0
TABLE
  2
LAYER
 70
     5
  0
LAYER
  2
0
 70
     0
 62
     7
  6
CONTINUOUS
  0
LAYER
  2
DATA
 70
     0
 62
     7
  6
CONTINUOUS
  0
LAYER
  2
HIBINO-BASE
 70
     0
 62
     7
  6
CONTINUOUS
  0
LAYER
  2
SPEC
 70
     0
 62
     7
  6
CONTINUOUS
  0
LAYER
  2
DIMNSIONS
 70
     0
 62
     7
  6
CONTINUOUS
  0
ENDTAB
  0
TABLE
  2
STYLE
 70
     2
  0
STYLE
  2
STANDARD
 70
     0
 40
0.0
 41
1.0
 50
0.0
 71
     0
 42
0.0
  3
txt
  4
BIGFONT.SHX
  0
ENDTAB
  0
TABLE
  2
VIEW
 70
     0
  0
ENDTAB
  0
TABLE
  2
UCS
 70
     0
  0
ENDTAB
  0
TABLE
  2
APPID
 70
     1
  0
APPID
  2
ACAD
 70
     0
  0
ENDTAB
  0
TABLE
  2
DIMSTYLE
 70
     1
  0
DIMSTYLE
  2
STANDARD
 70
     0
  3

  4

  5

  6

  7

 40
1.0
 41
0.18
 42
0.0625
 43
0.38
 44
0.18
 45
0.0
 46
0.0
 47
0.0
 48
0.0
140
0.18
141
0.09
142
0.0
143
25.399999999999999
144
1.0
145
0.0
146
1.0
147
0.09
 71
     0
 72
     0
 73
     1
 74
     1
 75
     0
 76
     0
 77
     0
 78
     0
170
     0
171
     2
172
     0
173
     0
174
     0
175
     0
176
     0
177
     0
178
     0
  0
ENDTAB
  0
ENDSEC
  0
SECTION
  2
BLOCKS
  0
BLOCK
  8
0
  2
$MODEL_SPACE
 70
     0
 10
0.0
 20
0.0
 30
0.0
  3
$MODEL_SPACE
  1

  0
ENDBLK
  5
23D
  8
0
  0
BLOCK
 67
     1
  8
0
  2
$PAPER_SPACE
 70
     0
 10
0.0
 20
0.0
 30
0.0
  3
$PAPER_SPACE
  1

  0
ENDBLK
  5
239
 67
     1
  8
0
  0
ENDSEC
  0
SECTION
  2
ENTITIES
  0
LINE
  5
2C
  8
HIBINO-BASE
  6
CONTINUOUS
 62
     7
 10
-612.49999999999989
 20
2450.0003637500008
 30
0.0
 11
2087.5
 21
2450.0003637500008
 31
0.0
  0
LINE
  5
2D
  8
HIBINO-BASE
  6
CONTINUOUS
 62
     7
 10
2087.5
 20
-1449.999636249999
 30
0.0
 11
-612.49999999999989
 21
-1449.999636249999
 31
0.0
  0
LINE
  5
2E
  8
HIBINO-BASE
  6
CONTINUOUS
 62
     7
 10
-612.49999999999989
 20
-1449.999636249999
 30
0.0
 11
-612.49999999999989
 21
2450.0003637500008
 31
0.0
  0
TEXT
  5
2F
  8
HIBINO-BASE
 62
     7
 10
-504.73999999999978
 20
-1546.129803249999
 30
0.0
 40
54.000662695312492
  1
Hibino Corporation
 41
0.7
 11
-504.73999999999978
 21
-1492.129140554687
 31
0.0
 73
     3
  0
LINE
  5
30
  8
HIBINO-BASE
  6
CONTINUOUS
 62
     7
 10
2087.5
 20
2450.0003637500008
 30
0.0
 11
2087.5
 21
-1449.999636249999
 31
0.0
  0
LINE
  5
31
  8
HIBINO-BASE
  6
CONTINUOUS
 62
     7
 10
737.5
 20
-1112.499636249999
 30
0.0
 11
2087.5
 21
-1112.499636249999
 31
0.0
  0
LINE
  5
32
  8
HIBINO-BASE
  6
CONTINUOUS
 62
     7
 10
737.5
 20
-1449.999636249999
 30
0.0
 11
737.5
 21
-1112.499636249999
 31
0.0
  0
TEXT
  5
33
  8
HIBINO-BASE
 62
     7
 10
751.0
 20
-1150.1300362500001
 30
0.0
 40
24.4326171875
  1
NOTE
 41
0.7
 11
751.0
 21
-1125.6974190625001
 31
0.0
 73
     3
  0
LINE
  5
34
  8
HIBINO-BASE
  6
CONTINUOUS
 62
     7
 10
1262.5
 20
-1449.999636249999
 30
0.0
 11
1262.5
 21
-1112.499636249999
 31
0.0
  0
TEXT
  5
35
  8
HIBINO-BASE
 62
     7
 10
1276.0
 20
-1150.1300362500001
 30
0.0
 40
24.4326171875
  1
TITLE
 41
0.7
 11
1276.0
 21
-1125.6974190625001
 31
0.0
 73
     3
  0
TEXT
  5
36
  8
HIBINO-BASE
 62
     7
 10
1488.52585
 20
-1546.129803249999
 30
0.0
 40
54.000662695312492
  1
ヒビノ株式会社
 41
0.7
 11
1488.52585
 21
-1492.129140554687
 31
0.0
 73
     3
  0
LINE
  5
37
  8
HIBINO-BASE
  6
CONTINUOUS
 62
     7
 10
737.5
 20
-1299.9996362500001
 30
0.0
 11
2087.5
 21
-1299.9996362500001
 31
0.0
  0
TEXT
  5
38
  8
HIBINO-BASE
 62
     7
 10
1463.5
 20
-1336.78523625
 30
0.0
 40
24.4326171875
  1
DRAWN
 41
0.7
 11
1463.5
 21
-1312.3526190625
 31
0.0
 73
     3
  0
TEXT
  5
39
  8
HIBINO-BASE
 62
     7
 10
1088.5
 20
-1336.78523625
 30
0.0
 40
24.4326171875
  1
DATE
 41
0.7
 11
1088.5
 21
-1312.3526190625
 31
0.0
 73
     3
  0
TEXT
  5
3A
  8
HIBINO-BASE
 62
     7
 10
938.49999999999989
 20
-1336.78523625
 30
0.0
 40
24.4326171875
  1
SCALE
 41
0.7
 11
938.49999999999989
 21
-1312.3526190625
 31
0.0
 73
     3
  0
TEXT
  5
3B
  8
HIBINO-BASE
 62
     7
 10
1276.0
 20
-1336.78523625
 30
0.0
 40
24.4326171875
  1
DESIGN
 41
0.7
 11
1276.0
 21
-1312.3526190625
 31
0.0
 73
     3
  0
TEXT
  5
3C
  8
HIBINO-BASE
 62
     7
 10
1838.4999999999991
 20
-1336.78523625
 30
0.0
 40
24.4326171875
  1
DRAWING NO.
 41
0.7
 11
1838.4999999999991
 21
-1312.3526190625
 31
0.0
 73
     3
  0
TEXT
  5
3D
  8
HIBINO-BASE
 62
     7
 10
1650.9999999999991
 20
-1336.78523625
 30
0.0
 40
24.4326171875
  1
CHECK
 41
0.7
 11
1650.9999999999991
 21
-1312.3526190625
 31
0.0
 73
     3
  0
LINE
  5
3E
  8
HIBINO-BASE
  6
CONTINUOUS
 62
     7
 10
953.12499999999955
 20
-1431.249636249999
 30
0.0
 11
1009.375
 21
-1374.999636249999
 31
0.0
  0
TEXT
  5
3F
  8
HIBINO-BASE
 62
     7
 10
943.74999999999955
 20
-1391.63378625
 30
0.0
 40
24.4326171875
  1
1
 41
0.7
 11
943.74999999999955
 21
-1367.2011690625
 31
0.0
 73
     3
  0
LINE
  5
40
  8
HIBINO-BASE
  6
CONTINUOUS
 62
     7
 10
925.0
 20
-1449.999636249999
 30
0.0
 11
925.0
 21
-1299.9996362500001
 31
0.0
  0
LINE
  5
41
  8
HIBINO-BASE
  6
CONTINUOUS
 62
     7
 10
1075.0
 20
-1449.999636249999
 30
0.0
 11
1075.0
 21
-1299.9996362500001
 31
0.0
  0
LINE
  5
42
  8
HIBINO-BASE
  6
CONTINUOUS
 62
     7
 10
1450.0
 20
-1299.9996362500001
 30
0.0
 11
1450.0
 21
-1449.999636249999
 31
0.0
  0
LINE
  5
43
  8
HIBINO-BASE
  6
CONTINUOUS
 62
     7
 10
1825.0
 20
-1299.9996362500001
 30
0.0
 11
1825.0
 21
-1449.999636249999
 31
0.0
  0
LINE
  5
44
  8
HIBINO-BASE
  6
CONTINUOUS
 62
     7
 10
1637.4999999999991
 20
-1449.999636249999
 30
0.0
 11
1637.4999999999991
 21
-1299.9996362500001
 31
0.0
  0
TEXT
  5
45
  8
HIBINO-BASE
 62
     7
 10
1087.8480999999999
 20
-1407.0449362500001
 30
0.0
 40
24.4326171875
  1
'07.11.
 41
0.7
 11
1087.8480999999999
 21
-1382.6123190625001
 31
0.0
 73
     3
  0
TEXT
  5
46
  8
HIBINO-BASE
 62
     7
 10
1000.0
 20
-1419.75878625
 30
0.0
 40
24.4326171875
  1
15
 41
0.7
 11
1000.0
 21
-1395.3261690625
 31
0.0
 73
     3
  0
TEXT
  5
47
  8
HIBINO-BASE
 62
     7
 10
1472.587150165519
 20
-1407.0449362500001
 30
0.0
 40
24.4326171875
  1
N.Sasaki
 41
0.7
 11
1472.587150165519
 21
-1382.6123190625001
 31
0.0
 73
     3
  0
TEXT
  5
48
  8
HIBINO-BASE
 62
     7
 10
795.75000000000011
 20
-1420.3596362499991
 30
0.0
 40
48.865234375
  1
A4
 41
0.7
 11
795.75000000000011
 21
-1371.494401875
 31
0.0
 73
     3
  0
TEXT
  5
49
  8
HIBINO-BASE
 62
     7
 10
751.87499999999989
 20
-1339.2914612500001
 30
0.0
 40
24.4326171875
  1
PAPER SIZE
 41
0.7
 11
751.87499999999989
 21
-1314.8588440625001
 31
0.0
 73
     3
  0
TEXT
  5
4A
  8
SPEC
 62
     7
 10
-481.24999999999989
 20
2320.8994137499999
 30
0.0
 40
36.64892578125
  1
仕様
 41
0.7
 11
-481.24999999999989
 21
2357.5483395312499
 31
0.0
 73
     3
  0
TEXT
  5
4B
  8
SPEC
 62
     7
 10
13.5
 20
1749.319130416666
 30
0.0
 40
28.504720052083339
  1
HF    :13kHz,±15dB,シェルビング
 41
0.7
 11
13.5
 21
1777.823850468749
 31
0.0
 73
     3
  0
TEXT
  5
4C
  8
SPEC
 62
     7
 10
-486.50000000000011
 20
2255.5691304166671
 30
0.0
 40
28.504720052083339
  1
周波数特性
 41
0.7
 11
-486.50000000000011
 21
2284.0738504687511
 31
0.0
 73
     3
  0
TEXT
  5
4D
  8
SPEC
 62
     7
 10
-486.50000000000011
 20
1805.569130416666
 30
0.0
 40
28.504720052083339
  1
同相信号除去比
 41
0.7
 11
-486.50000000000011
 21
1834.073850468749
 31
0.0
 73
     3
  0
TEXT
  5
4E
  8
SPEC
 62
     7
 10
-486.50000000000011
 20
2086.8191304166671
 30
0.0
 40
28.504720052083339
  1
最大信号レベル
 41
0.7
 11
-486.50000000000011
 21
2115.3238504687511
 31
0.0
 73
     3
  0
TEXT
  5
4F
  8
SPEC
 62
     7
 10
-486.50000000000011
 20
1918.0691304166669
 30
0.0
 40
28.504720052083339
  1
インピーダンス
 41
0.7
 11
-486.50000000000011
 21
1946.5738504687511
 31
0.0
 73
     3
  0
TEXT
  5
50
  8
SPEC
 62
     7
 10
-486.50000000000011
 20
2199.3191304166671
 30
0.0
 40
28.504720052083339
  1
マイク等価入力ノイズ
 41
0.7
 11
-486.50000000000011
 21
2227.8238504687511
 31
0.0
 73
     3
  0
TEXT
  5
51
  8
SPEC
 62
     7
 10
-486.50000000000011
 20
2143.0691304166671
 30
0.0
 40
28.504720052083339
  1
THD+N
 41
0.7
 11
-486.50000000000011
 21
2171.5738504687511
 31
0.0
 73
     3
  0
TEXT
  5
52
  8
SPEC
 62
     7
 10
-486.50000000000011
 20
1749.319130416666
 30
0.0
 40
28.504720052083339
  1
イコライザ(モノラル入力)
 41
0.7
 11
-486.50000000000011
 21
1777.823850468749
 31
0.0
 73
     3
  0
TEXT
  5
53
  8
SPEC
 62
     7
 10
-486.50000000000011
 20
1524.319130416666
 30
0.0
 40
28.504720052083339
  1
ハイパスフィルタ 
 41
0.7
 11
-486.50000000000011
 21
1552.823850468749
 31
0.0
 73
     3
  0
TEXT
  5
54
  8
SPEC
 62
     7
 10
13.5
 20
1805.569130416666
 30
0.0
 40
28.504720052083339
  1
80dB(1kHz)
 41
0.7
 11
13.5
 21
1834.073850468749
 31
0.0
 73
     3
  0
TEXT
  5
55
  8
SPEC
 62
     7
 10
13.5
 20
2086.8191304166671
 30
0.0
 40
28.504720052083339
  1
マイク入力  :+15dBu
 41
0.7
 11
13.5
 21
2115.3238504687511
 31
0.0
 73
     3
  0
TEXT
  5
56
  8
SPEC
 62
     7
 10
13.5
 20
2038.069530416667
 30
0.0
 40
28.504720052083339
  1
ライン入力  :+30dBu
 41
0.7
 11
13.5
 21
2066.5742504687501
 31
0.0
 73
     3
  0
TEXT
  5
57
  8
SPEC
 62
     7
 10
13.5
 20
2255.5691637499999
 30
0.0
 40
28.504720052083339
  1
20Hz～20kHz(+0,-1dB)
 41
0.7
 11
13.5
 21
2284.0738838020829
 31
0.0
 73
     3
  0
TEXT
  5
58
  8
SPEC
 62
     7
 10
13.5
 20
2199.3191637499999
 30
0.0
 40
28.504720052083339
  1
-128dBu(22Hz～22kHz,150Ωソース)
 41
0.7
 11
13.5
 21
2227.8238838020829
 31
0.0
 73
     3
  0
TEXT
  5
59
  8
SPEC
 62
     7
 10
13.5
 20
2143.0691637499999
 30
0.0
 40
28.504720052083339
  1
0.008%%%以下
 41
0.7
 11
13.5
 21
2171.5738838020829
 31
0.0
 73
     3
  0
TEXT
  5
5A
  8
SPEC
 62
     7
 10
13.5
 20
1918.0691304166669
 30
0.0
 40
28.504720052083339
  1
マイク入力:2kΩ
 41
0.7
 11
13.5
 21
1946.5738504687511
 31
0.0
 73
     3
  0
TEXT
  5
5B
  8
SPEC
 62
     7
 10
13.5
 20
1869.3195304166661
 30
0.0
 40
28.504720052083339
  1
ライン入力:10kΩ以上
 41
0.7
 11
13.5
 21
1897.8242504687489
 31
0.0
 73
     3
  0
TEXT
  5
5C
  8
SPEC
 62
     7
 10
13.5
 20
1700.5695304166661
 30
0.0
 40
28.504720052083339
  1
HI MID:550Hz～13kHz,±15dB,Q=1
 41
0.7
 11
13.5
 21
1729.0742504687489
 31
0.0
 73
     3
  0
TEXT
  5
5D
  8
SPEC
 62
     7
 10
13.499999999999879
 20
1651.8195304166661
 30
0.0
 40
28.504720052083339
  1
LO MID:80Hz～1.9kHz,±15dB,Q=1
 41
0.7
 11
13.499999999999879
 21
1680.3242504687489
 31
0.0
 73
     3
  0
TEXT
  5
5E
  8
SPEC
 62
     7
 10
13.499999999999879
 20
1603.0695304166661
 30
0.0
 40
28.504720052083339
  1
LF    :80Hz,±15dB,シェルビング
 41
0.7
 11
13.499999999999879
 21
1631.5742504687489
 31
0.0
 73
     3
  0
TEXT
  5
5F
  8
SPEC
 62
     7
 10
13.5
 20
1524.3191637499999
 30
0.0
 40
28.504720052083339
  1
100Hz,18dB/oct
 41
0.7
 11
13.5
 21
1552.8238838020829
 31
0.0
 73
     3
  0
TEXT
  5
60
  8
SPEC
 62
     7
 10
-486.50000000000011
 20
1468.069130416666
 30
0.0
 40
28.504720052083339
  1
電源
 41
0.7
 11
-486.50000000000011
 21
1496.573850468749
 31
0.0
 73
     3
  0
TEXT
  5
61
  8
SPEC
 62
     7
 10
13.5
 20
1468.0691637499999
 30
0.0
 40
28.504720052083339
  1
AC100V,50/60Hz
 41
0.7
 11
13.5
 21
1496.5738838020829
 31
0.0
 73
     3
  0
LINE
  5
62
  8
SPEC
  6
CONTINUOUS
 62
     7
 10
-499.99999999999989
 20
2300.000363749999
 30
0.0
 11
1700.0
 21
2300.000363749999
 31
0.0
  0
LINE
  5
63
  8
SPEC
  6
CONTINUOUS
 62
     7
 10
-499.99999999999989
 20
2243.750363749999
 30
0.0
 11
1700.0
 21
2243.750363749999
 31
0.0
  0
LINE
  5
64
  8
SPEC
  6
CONTINUOUS
 62
     7
 10
-499.99999999999989
 20
1962.5003637499999
 30
0.0
 11
1700.0
 21
1962.5003637499999
 31
0.0
  0
LINE
  5
65
  8
SPEC
  6
CONTINUOUS
 62
     7
 10
-499.99999999999989
 20
2131.250363749999
 30
0.0
 11
1700.0
 21
2131.250363749999
 31
0.0
  0
LINE
  5
66
  8
SPEC
  6
CONTINUOUS
 62
     7
 10
-499.99999999999989
 20
1793.750363749999
 30
0.0
 11
1700.0
 21
1793.750363749999
 31
0.0
  0
LINE
  5
67
  8
SPEC
  6
CONTINUOUS
 62
     7
 10
-499.99999999999989
 20
1850.0003637499999
 30
0.0
 11
1700.0
 21
1850.0003637499999
 31
0.0
  0
LINE
  5
68
  8
SPEC
  6
CONTINUOUS
 62
     7
 10
-499.99999999999989
 20
2187.500363749999
 30
0.0
 11
1700.0
 21
2187.500363749999
 31
0.0
  0
LINE
  5
69
  8
SPEC
  6
CONTINUOUS
 62
     7
 10
-499.99999999999989
 20
1568.7503637499999
 30
0.0
 11
1700.0
 21
1568.7503637499999
 31
0.0
  0
LINE
  5
6A
  8
SPEC
  6
CONTINUOUS
 62
     7
 10
-499.99999999999989
 20
1456.2503637499999
 30
0.0
 11
1700.0
 21
1456.2503637499999
 31
0.0
  0
LINE
  5
6B
  8
SPEC
  6
CONTINUOUS
 62
     7
 10
-499.99999999999989
 20
2300.000363749999
 30
0.0
 11
-499.99999999999989
 21
1343.7503637499999
 31
0.0
  0
LINE
  5
6C
  8
SPEC
  6
CONTINUOUS
 62
     7
 10
0.0
 20
2300.000363749999
 30
0.0
 11
0.0
 21
1343.7503637499999
 31
0.0
  0
LINE
  5
6D
  8
SPEC
  6
CONTINUOUS
 62
     7
 10
1700.0
 20
2300.000363749999
 30
0.0
 11
1700.0
 21
1343.7503637499999
 31
0.0
  0
LINE
  5
6E
  8
SPEC
  6
CONTINUOUS
 62
     7
 10
-499.99999999999989
 20
1512.5003637499999
 30
0.0
 11
1700.0
 21
1512.5003637499999
 31
0.0
  0
TEXT
  5
6F
  8
SPEC
 62
     7
 10
13.5
 20
1989.3195304166661
 30
0.0
 40
28.504720052083339
  1
ステレオ入力:+20dBu
 41
0.7
 11
13.5
 21
2017.8242504687489
 31
0.0
 73
     3
  0
TEXT
  5
70
  8
SPEC
 62
     7
 10
-486.50000000000011
 20
1411.819130416666
 30
0.0
 40
28.504720052083339
  1
寸法 / 質量
 41
0.7
 11
-486.50000000000011
 21
1440.323850468749
 31
0.0
 73
     3
  0
TEXT
  5
71
  8
SPEC
 62
     7
 10
13.5
 20
1411.8191637499999
 30
0.0
 40
28.504720052083339
  1
16ch:653(W)×164(H)×503(D)mm / 約13.2kg
 41
0.7
 11
13.5
 21
1440.3238838020829
 31
0.0
 73
     3
  0
TEXT
  5
72
  8
SPEC
 62
     7
 10
13.5
 20
1363.0691637499999
 30
0.0
 40
28.504720052083339
  1
24ch:856(W)×164(H)×503(D)mm / 約16.8kg
 41
0.7
 11
13.5
 21
1391.5738838020829
 31
0.0
 73
     3
  0
LINE
  5
73
  8
SPEC
  6
CONTINUOUS
 62
     7
 10
-499.99999999999989
 20
1343.7503637499999
 30
0.0
 11
1700.0
 21
1343.7503637499999
 31
0.0
  0
TEXT
  5
74
  8
DIMNSIONS
 62
     7
 10
437.49999999999989
 20
-1265.9572862499999
 30
0.0
 40
36.64892578125
  1
(単位：mm)
 41
0.7
 11
437.49999999999989
 21
-1229.3083604687499
 31
0.0
 73
     3
  0
LINE
  5
75
  8
DIMNSIONS
  6
CONTINUOUS
 62
     7
 10
0.600192322681778
 20
503.0
 30
0.0
 11
-130.0
 21
503.0
 31
0.0
  0
LINE
  5
76
  8
DIMNSIONS
  6
CONTINUOUS
 62
     7
 10
0.600192322681778
 20
0.0
 30
0.0
 11
-130.0
 21
0.0
 31
0.0
  0
LINE
  5
77
  8
DIMNSIONS
  6
CONTINUOUS
 62
     7
 10
-100.0
 20
503.0
 30
0.0
 11
-100.0
 21
0.0
 31
0.0
  0
LINE
  5
78
  8
DIMNSIONS
  6
CONTINUOUS
 62
     7
 10
-100.0
 20
503.0
 30
0.0
 11
-89.94940307274635
 21
465.49066162109369
 31
0.0
  0
LINE
  5
79
  8
DIMNSIONS
  6
CONTINUOUS
 62
     7
 10
-100.0
 20
503.0
 30
0.0
 11
-110.05059692725359
 21
465.49066162109369
 31
0.0
  0
LINE
  5
7A
  8
DIMNSIONS
  6
CONTINUOUS
 62
     7
 10
-100.0
 20
0.0
 30
0.0
 11
-110.05059692725359
 21
37.50933837890625
 31
0.0
  0
LINE
  5
7B
  8
DIMNSIONS
  6
CONTINUOUS
 62
     7
 10
-100.0
 20
0.0
 30
0.0
 11
-89.94940307274635
 21
37.50933837890625
 31
0.0
  0
TEXT
  5
7C
  8
DIMNSIONS
 62
     7
 10
-114.9083333333335
 20
211.8125
 30
0.0
 40
40.721028645833343
  1
503
 50
90.0
 41
0.7
 11
-155.62936197916679
 21
211.8125
 31
0.0
 73
     3
  0
LINE
  5
7D
  8
DIMNSIONS
  6
CONTINUOUS
 62
     7
 10
0.0
 20
408.30179069144771
 30
0.0
 11
0.0
 21
630.0
 31
0.0
  0
LINE
  5
7E
  8
DIMNSIONS
  6
CONTINUOUS
 62
     7
 10
855.80041062604278
 20
408.30179069144771
 30
0.0
 11
855.80041062604278
 21
630.0
 31
0.0
  0
LINE
  5
7F
  8
DIMNSIONS
  6
CONTINUOUS
 62
     7
 10
0.0
 20
600.0
 30
0.0
 11
855.80041062604278
 21
600.0
 31
0.0
  0
LINE
  5
80
  8
DIMNSIONS
  6
CONTINUOUS
 62
     7
 10
0.0
 20
600.0
 30
0.0
 11
37.50933837890625
 21
610.05059692725365
 31
0.0
  0
LINE
  5
81
  8
DIMNSIONS
  6
CONTINUOUS
 62
     7
 10
0.0
 20
600.0
 30
0.0
 11
37.50933837890625
 21
589.94940307274635
 31
0.0
  0
LINE
  5
82
  8
DIMNSIONS
  6
CONTINUOUS
 62
     7
 10
855.80041062604278
 20
600.0
 30
0.0
 11
818.29107224713653
 21
589.94940307274635
 31
0.0
  0
LINE
  5
83
  8
DIMNSIONS
  6
CONTINUOUS
 62
     7
 10
855.80041062604278
 20
600.0
 30
0.0
 11
818.29107224713653
 21
610.05059692725365
 31
0.0
  0
TEXT
  5
84
  8
DIMNSIONS
 62
     7
 10
308.8377053130215
 20
614.9083333333333
 30
0.0
 40
40.721028645833343
  1
856(24ch)
 41
0.7
 11
308.8377053130215
 21
655.62936197916667
 31
0.0
 73
     3
  0
LINE
  5
85
  8
DIMNSIONS
  6
CONTINUOUS
 62
     7
 10
1202.53349379272
 20
520.98967441811192
 30
0.0
 11
1202.53349379272
 21
630.0
 31
0.0
  0
LINE
  5
86
  8
DIMNSIONS
  6
CONTINUOUS
 62
     7
 10
1366.2584729818011
 20
533.00272390777707
 30
0.0
 11
1366.2584729818011
 21
630.0
 31
0.0
  0
LINE
  5
87
  8
DIMNSIONS
  6
CONTINUOUS
 62
     7
 10
1202.53349379272
 20
600.0
 30
0.0
 11
1366.2584729818011
 21
600.0
 31
0.0
  0
LINE
  5
88
  8
DIMNSIONS
  6
CONTINUOUS
 62
     7
 10
1202.53349379272
 20
600.0
 30
0.0
 11
1240.0428321716261
 21
610.05059692725365
 31
0.0
  0
LINE
  5
89
  8
DIMNSIONS
  6
CONTINUOUS
 62
     7
 10
1202.53349379272
 20
600.0
 30
0.0
 11
1240.0428321716261
 21
589.94940307274635
 31
0.0
  0
LINE
  5
8A
  8
DIMNSIONS
  6
CONTINUOUS
 62
     7
 10
1366.2584729818011
 20
600.0
 30
0.0
 11
1328.7491346028951
 21
589.94940307274635
 31
0.0
  0
LINE
  5
8B
  8
DIMNSIONS
  6
CONTINUOUS
 62
     7
 10
1366.2584729818011
 20
600.0
 30
0.0
 11
1328.7491346028951
 21
610.05059692725365
 31
0.0
  0
TEXT
  5
8C
  8
DIMNSIONS
 62
     7
 10
1244.7084833872609
 20
614.9083333333333
 30
0.0
 40
40.721028645833343
  1
164
 41
0.7
 11
1244.7084833872609
 21
655.62936197916667
 31
0.0
 73
     3
  0
LINE
  5
8D
  8
DIMNSIONS
  6
CONTINUOUS
 62
     7
 10
1366.25847298182
 20
522.11355085769856
 30
0.0
 11
1366.25847298182
 21
629.95833333333314
 31
0.0
  0
LINE
  5
8E
  8
DIMNSIONS
  6
CONTINUOUS
 62
     7
 10
1376.25847298182
 20
521.21355085769846
 30
0.0
 11
1376.25847298182
 21
629.95833333333314
 31
0.0
  0
LINE
  5
8F
  8
DIMNSIONS
  6
CONTINUOUS
 62
     7
 10
1376.25847298182
 20
599.95833333333314
 30
0.0
 11
1366.25847298182
 21
599.95833333333314
 31
0.0
  0
LINE
  5
90
  8
DIMNSIONS
  6
CONTINUOUS
 62
     7
 10
1366.25847298182
 20
599.95833333333314
 30
0.0
 11
1291.25847298182
 21
599.95833333333314
 31
0.0
  0
LINE
  5
91
  8
DIMNSIONS
  6
CONTINUOUS
 62
     7
 10
1366.25847298182
 20
599.95833333333314
 30
0.0
 11
1328.749134602914
 21
589.90773640607949
 31
0.0
  0
LINE
  5
92
  8
DIMNSIONS
  6
CONTINUOUS
 62
     7
 10
1366.25847298182
 20
599.95833333333314
 30
0.0
 11
1328.749134602914
 21
610.00893026058679
 31
0.0
  0
LINE
  5
93
  8
DIMNSIONS
  6
CONTINUOUS
 62
     7
 10
1376.25847298182
 20
599.95833333333314
 30
0.0
 11
1470.9166666666661
 21
599.95833333333314
 31
0.0
  0
LINE
  5
94
  8
DIMNSIONS
  6
CONTINUOUS
 62
     7
 10
1376.25847298182
 20
599.95833333333314
 30
0.0
 11
1413.767811360726
 21
610.00893026058679
 31
0.0
  0
LINE
  5
95
  8
DIMNSIONS
  6
CONTINUOUS
 62
     7
 10
1376.25847298182
 20
599.95833333333314
 30
0.0
 11
1413.767811360726
 21
589.90773640607949
 31
0.0
  0
TEXT
  5
96
  8
DIMNSIONS
 62
     7
 10
1418.0
 20
614.86666666666645
 30
0.0
 40
40.721028645833343
  1
10
 41
0.7
 11
1418.0
 21
655.58769531249982
 31
0.0
 73
     3
  0
LINE
  5
97
  8
DIMNSIONS
  6
CONTINUOUS
 62
     7
 10
1194.279392250801
 20
434.14314173349288
 30
0.0
 11
1202.6855334347781
 21
386.4695460636683
 31
0.0
  0
LINE
  5
98
  8
DIMNSIONS
  6
CONTINUOUS
 62
     7
 10
1212.0059318050201
 20
437.26880893149752
 30
0.0
 11
1220.4120729889969
 21
389.59521326167311
 31
0.0
  0
LINE
  5
99
  8
DIMNSIONS
  6
CONTINUOUS
 62
     7
 10
1215.2026276589891
 20
419.1394458520391
 30
0.0
 11
1197.47608810477
 21
416.01377865403452
 31
0.0
  0
LINE
  5
9A
  8
DIMNSIONS
  6
CONTINUOUS
 62
     7
 10
1197.47608810477
 20
416.01377865403452
 30
0.0
 11
1118.0
 21
402.0
 31
0.0
  0
LINE
  5
9B
  8
DIMNSIONS
  6
CONTINUOUS
 62
     7
 10
1197.47608810477
 20
416.01377865403452
 30
0.0
 11
1162.5736462215229
 21
398.99072032704879
 31
0.0
  0
LINE
  5
9C
  8
DIMNSIONS
  6
CONTINUOUS
 62
     7
 10
1197.47608810477
 20
416.01377865403452
 30
0.0
 11
1158.738157616275
 21
418.72259863438433
 31
0.0
  0
LINE
  5
9D
  8
DIMNSIONS
  6
CONTINUOUS
 62
     7
 10
1215.2026276589891
 20
419.1394458520391
 30
0.0
 11
1289.063209134905
 21
432.16305917705938
 31
0.0
  0
LINE
  5
9E
  8
DIMNSIONS
  6
CONTINUOUS
 62
     7
 10
1215.2026276589891
 20
419.1394458520391
 30
0.0
 11
1250.396847064012
 21
435.5507798833886
 31
0.0
  0
LINE
  5
9F
  8
DIMNSIONS
  6
CONTINUOUS
 62
     7
 10
1215.2026276589891
 20
419.1394458520391
 30
0.0
 11
1253.8873827457769
 21
415.75496833066842
 31
0.0
  0
TEXT
  5
A0
  8
DIMNSIONS
 62
     7
 10
1091.541666666667
 20
382.94999999999999
 30
0.0
 40
40.721028645833343
  1
18
 41
0.7
 11
1091.541666666667
 21
423.6710286458333
 31
0.0
 73
     3
  0
TEXT
  5
A1
  8
DIMNSIONS
 62
     7
 10
308.8377053130215
 20
689.90833333333308
 30
0.0
 40
40.721028645833343
  1
653(16ch)
 41
0.7
 11
308.8377053130215
 21
730.62936197916656
 31
0.0
 73
     3
  0
TEXT
  5
A2
  8
DATA
 62
     7
 10
1487.5
 20
-1266.223
 30
0.0
 40
36.64892578125
  1
LX7II
 41
0.7
 11
1487.5
 21
-1229.57407421875
 31
0.0
 73
     3
  0
TEXT
  5
A3
  8
DATA
 62
     7
 10
-462.49999999999989
 20
-1386.4296362499999
 30
0.0
 40
24.4326171875
  1
仕様および外観は予告なく変更されることがありますので、ご了承ください。
 41
0.7
 11
-462.49999999999989
 21
-1361.9970190624999
 31
0.0
 73
     3
  0
TEXT
  5
A4
  8
DATA
 62
     7
 10
1487.5
 20
-1174.2862862500001
 30
0.0
 40
36.64892578125
  1
Soundcraft
 41
0.7
 11
1487.5
 21
-1137.6373604687501
 31
0.0
 73
     3
  0
LINE
  5
A5
  8
DATA
  6
CONTINUOUS
 62
     7
 10
587.92025877218327
 20
472.49631761408341
 30
0.0
 11
587.92025877218327
 21
32.393817614083453
 31
0.0
  0
LINE
  5
A6
  8
DATA
  6
CONTINUOUS
 62
     7
 10
471.08025877218302
 20
472.49631761408341
 30
0.0
 11
471.08025877218302
 21
32.377017614083343
 31
0.0
  0
LINE
  5
A7
  8
DATA
  6
CONTINUOUS
 62
     7
 10
257.72025877218312
 20
479.31031761408337
 30
0.0
 11
257.72025877218312
 21
32.37721761408352
 31
0.0
  0
LINE
  5
A8
  8
DATA
  6
CONTINUOUS
 62
     7
 10
460.92025877218282
 20
479.2780176140833
 30
0.0
 11
460.92025877218282
 21
32.37721761408352
 31
0.0
  0
LINE
  5
A9
  8
DATA
  6
CONTINUOUS
 62
     7
 10
232.320258772183
 20
479.2780176140833
 30
0.0
 11
232.320258772183
 21
32.37721761408352
 31
0.0
  0
LINE
  5
AA
  8
DATA
  6
CONTINUOUS
 62
     7
 10
435.52025877218313
 20
479.2780176140833
 30
0.0
 11
435.52025877218313
 21
32.37721761408352
 31
0.0
  0
LINE
  5
AB
  8
DATA
  6
CONTINUOUS
 62
     7
 10
206.92025877218299
 20
479.2780176140833
 30
0.0
 11
206.92025877218299
 21
32.37721761408352
 31
0.0
  0
LINE
  5
AC
  8
DATA
  6
CONTINUOUS
 62
     7
 10
410.12025877218309
 20
479.2780176140833
 30
0.0
 11
410.12025877218309
 21
32.37721761408352
 31
0.0
  0
LINE
  5
AD
  8
DATA
  6
CONTINUOUS
 62
     7
 10
181.5202587721831
 20
479.2780176140833
 30
0.0
 11
181.5202587721831
 21
32.37721761408352
 31
0.0
  0
LINE
  5
AE
  8
DATA
  6
CONTINUOUS
 62
     7
 10
384.72025877218317
 20
479.2780176140833
 30
0.0
 11
384.72025877218317
 21
32.37721761408352
 31
0.0
  0
LINE
  5
AF
  8
DATA
  6
CONTINUOUS
 62
     7
 10
156.12025877218309
 20
479.2780176140833
 30
0.0
 11
156.12025877218309
 21
32.37721761408352
 31
0.0
  0
LINE
  5
B0
  8
DATA
  6
CONTINUOUS
 62
     7
 10
359.32025877218308
 20
479.2780176140833
 30
0.0
 11
359.32025877218308
 21
32.37721761408352
 31
0.0
  0
LINE
  5
B1
  8
DATA
  6
CONTINUOUS
 62
     7
 10
130.72025877218309
 20
479.2780176140833
 30
0.0
 11
130.72025877218309
 21
32.37721761408352
 31
0.0
  0
LINE
  5
B2
  8
DATA
  6
CONTINUOUS
 62
     7
 10
333.92025877218299
 20
479.2780176140833
 30
0.0
 11
333.92025877218299
 21
32.37721761408352
 31
0.0
  0
LINE
  5
B3
  8
DATA
  6
CONTINUOUS
 62
     7
 10
105.320258772183
 20
479.2780176140833
 30
0.0
 11
105.320258772183
 21
32.37721761408352
 31
0.0
  0
LINE
  5
B4
  8
DATA
  6
CONTINUOUS
 62
     7
 10
308.52025877218301
 20
479.2780176140833
 30
0.0
 11
308.52025877218301
 21
32.37721761408352
 31
0.0
  0
LINE
  5
B5
  8
DATA
  6
CONTINUOUS
 62
     7
 10
79.920258772183047
 20
479.2780176140833
 30
0.0
 11
79.920258772183047
 21
32.37721761408352
 31
0.0
  0
LINE
  5
B6
  8
DATA
  6
CONTINUOUS
 62
     7
 10
283.12025877218309
 20
479.2780176140833
 30
0.0
 11
283.12025877218309
 21
32.37721761408352
 31
0.0
  0
LINE
  5
B7
  8
DATA
  6
CONTINUOUS
 62
     7
 10
801.28025877218295
 20
479.31031761408337
 30
0.0
 11
801.28025877218295
 21
32.37721761408352
 31
0.0
  0
LINE
  5
B8
  8
DATA
  6
CONTINUOUS
 62
     7
 10
775.88025877218342
 20
479.31031761408337
 30
0.0
 11
775.88025877218342
 21
32.37721761408352
 31
0.0
  0
LINE
  5
B9
  8
DATA
  6
CONTINUOUS
 62
     7
 10
750.48025877218299
 20
479.31031761408337
 30
0.0
 11
750.48025877218299
 21
32.37721761408352
 31
0.0
  0
LINE
  5
BA
  8
DATA
  6
CONTINUOUS
 62
     7
 10
725.08025877218313
 20
479.31031761408337
 30
0.0
 11
725.08025877218313
 21
32.37721761408352
 31
0.0
  0
LINE
  5
BB
  8
DATA
  6
CONTINUOUS
 62
     7
 10
699.68025877218315
 20
479.31031761408337
 30
0.0
 11
699.68025877218315
 21
32.37721761408352
 31
0.0
  0
LINE
  5
BC
  8
DATA
  6
CONTINUOUS
 62
     7
 10
674.28025877218317
 20
479.31031761408337
 30
0.0
 11
674.28025877218317
 21
32.37721761408352
 31
0.0
  0
LINE
  5
BD
  8
DATA
  6
CONTINUOUS
 62
     7
 10
648.88025877218308
 20
479.31031761408337
 30
0.0
 11
648.88025877218308
 21
32.37721761408352
 31
0.0
  0
LINE
  5
BE
  8
DATA
  6
CONTINUOUS
 62
     7
 10
623.48025877218311
 20
479.31031761408337
 30
0.0
 11
623.48025877218311
 21
32.37721761408352
 31
0.0
  0
LINE
  5
BF
  8
DATA
  6
CONTINUOUS
 62
     7
 10
598.08025877218302
 20
479.31031761408337
 30
0.0
 11
598.08025877218302
 21
32.37721761408352
 31
0.0
  0
POLYLINE
  5
C0
  8
DATA
  6
CONTINUOUS
 62
     7
 66
     1
 10
0.0
 20
0.0
 30
0.0
 70
     1
  0
VERTEX
  5
25A
  8
DATA
  6
CONTINUOUS
 62
     7
 10
543.97015877218314
 20
32.393817614083453
 30
0.0
  0
VERTEX
  5
25B
  8
DATA
  6
CONTINUOUS
 62
     7
 10
587.92015877218284
 20
32.393817614083453
 30
0.0
  0
VERTEX
  5
25C
  8
DATA
  6
CONTINUOUS
 62
     7
 10
587.92015877218284
 20
47.393817614083453
 30
0.0
  0
VERTEX
  5
25D
  8
DATA
  6
CONTINUOUS
 62
     7
 10
543.97015877218314
 20
47.393817614083453
 30
0.0
  0
VERTEX
  5
25E
  8
DATA
  6
CONTINUOUS
 62
     7
 10
543.97015877218314
 20
32.393817614083453
 30
0.0
  0
SEQEND
  5
25F
  8
DATA
  6
CONTINUOUS
 62
     7
  0
POLYLINE
  5
C8
  8
DATA
  6
CONTINUOUS
 62
     7
 66
     1
 10
0.0
 20
0.0
 30
0.0
 70
     1
  0
VERTEX
  5
260
  8
DATA
  6
CONTINUOUS
 62
     7
 10
776.88015877218311
 20
32.37721761408352
 30
0.0
  0
VERTEX
  5
261
  8
DATA
  6
CONTINUOUS
 62
     7
 10
801.28025877218295
 20
32.37721761408352
 30
0.0
  0
VERTEX
  5
262
  8
DATA
  6
CONTINUOUS
 62
     7
 10
801.28025877218295
 20
47.377217614083513
 30
0.0
  0
VERTEX
  5
263
  8
DATA
  6
CONTINUOUS
 62
     7
 10
776.88015877218311
 20
47.377217614083513
 30
0.0
  0
VERTEX
  5
264
  8
DATA
  6
CONTINUOUS
 62
     7
 10
776.88015877218311
 20
32.37721761408352
 30
0.0
  0
SEQEND
  5
265
  8
DATA
  6
CONTINUOUS
 62
     7
  0
POLYLINE
  5
D0
  8
DATA
  6
CONTINUOUS
 62
     7
 66
     1
 10
0.0
 20
0.0
 30
0.0
 70
     1
  0
VERTEX
  5
266
  8
DATA
  6
CONTINUOUS
 62
     7
 10
436.52015877218292
 20
32.37721761408352
 30
0.0
  0
VERTEX
  5
267
  8
DATA
  6
CONTINUOUS
 62
     7
 10
460.92025877218282
 20
32.37721761408352
 30
0.0
  0
VERTEX
  5
268
  8
DATA
  6
CONTINUOUS
 62
     7
 10
460.92025877218282
 20
47.377217614083513
 30
0.0
  0
VERTEX
  5
269
  8
DATA
  6
CONTINUOUS
 62
     7
 10
436.52015877218292
 20
47.377217614083513
 30
0.0
  0
VERTEX
  5
26A
  8
DATA
  6
CONTINUOUS
 62
     7
 10
436.52015877218292
 20
32.37721761408352
 30
0.0
  0
SEQEND
  5
26B
  8
DATA
  6
CONTINUOUS
 62
     7
  0
POLYLINE
  5
D8
  8
DATA
  6
CONTINUOUS
 62
     7
 66
     1
 10
0.0
 20
0.0
 30
0.0
 70
     1
  0
VERTEX
  5
26C
  8
DATA
  6
CONTINUOUS
 62
     7
 10
751.48015877218324
 20
32.37721761408352
 30
0.0
  0
VERTEX
  5
26D
  8
DATA
  6
CONTINUOUS
 62
     7
 10
775.88025877218342
 20
32.37721761408352
 30
0.0
  0
VERTEX
  5
26E
  8
DATA
  6
CONTINUOUS
 62
     7
 10
775.88025877218342
 20
47.377217614083513
 30
0.0
  0
VERTEX
  5
26F
  8
DATA
  6
CONTINUOUS
 62
     7
 10
751.48015877218324
 20
47.377217614083513
 30
0.0
  0
VERTEX
  5
270
  8
DATA
  6
CONTINUOUS
 62
     7
 10
751.48015877218324
 20
32.37721761408352
 30
0.0
  0
SEQEND
  5
271
  8
DATA
  6
CONTINUOUS
 62
     7
  0
POLYLINE
  5
E0
  8
DATA
  6
CONTINUOUS
 62
     7
 66
     1
 10
0.0
 20
0.0
 30
0.0
 70
     1
  0
VERTEX
  5
272
  8
DATA
  6
CONTINUOUS
 62
     7
 10
471.08015877218281
 20
32.37701761408357
 30
0.0
  0
VERTEX
  5
273
  8
DATA
  6
CONTINUOUS
 62
     7
 10
542.91755877218316
 20
32.37701761408357
 30
0.0
  0
VERTEX
  5
274
  8
DATA
  6
CONTINUOUS
 62
     7
 10
542.91755877218316
 20
47.377017614083343
 30
0.0
  0
VERTEX
  5
275
  8
DATA
  6
CONTINUOUS
 62
     7
 10
471.08015877218281
 20
47.377017614083343
 30
0.0
  0
VERTEX
  5
276
  8
DATA
  6
CONTINUOUS
 62
     7
 10
471.08015877218281
 20
32.37701761408357
 30
0.0
  0
SEQEND
  5
277
  8
DATA
  6
CONTINUOUS
 62
     7
  0
POLYLINE
  5
E8
  8
DATA
  6
CONTINUOUS
 62
     7
 66
     1
 10
0.0
 20
0.0
 30
0.0
 70
     1
  0
VERTEX
  5
278
  8
DATA
  6
CONTINUOUS
 62
     7
 10
598.08025877218302
 20
32.37721761408352
 30
0.0
  0
VERTEX
  5
279
  8
DATA
  6
CONTINUOUS
 62
     7
 10
623.48025877218311
 20
32.37721761408352
 30
0.0
  0
VERTEX
  5
27A
  8
DATA
  6
CONTINUOUS
 62
     7
 10
623.48025877218311
 20
47.377217614083513
 30
0.0
  0
VERTEX
  5
27B
  8
DATA
  6
CONTINUOUS
 62
     7
 10
598.08025877218302
 20
47.377217614083513
 30
0.0
  0
VERTEX
  5
27C
  8
DATA
  6
CONTINUOUS
 62
     7
 10
598.08025877218302
 20
32.37721761408352
 30
0.0
  0
SEQEND
  5
27D
  8
DATA
  6
CONTINUOUS
 62
     7
  0
POLYLINE
  5
F0
  8
DATA
  6
CONTINUOUS
 62
     7
 66
     1
 10
0.0
 20
0.0
 30
0.0
 70
     1
  0
VERTEX
  5
27E
  8
DATA
  6
CONTINUOUS
 62
     7
 10
360.32015877218311
 20
32.37721761408352
 30
0.0
  0
VERTEX
  5
27F
  8
DATA
  6
CONTINUOUS
 62
     7
 10
384.72025877218317
 20
32.37721761408352
 30
0.0
  0
VERTEX
  5
280
  8
DATA
  6
CONTINUOUS
 62
     7
 10
384.72025877218317
 20
47.377217614083513
 30
0.0
  0
VERTEX
  5
281
  8
DATA
  6
CONTINUOUS
 62
     7
 10
360.32015877218311
 20
47.377217614083513
 30
0.0
  0
VERTEX
  5
282
  8
DATA
  6
CONTINUOUS
 62
     7
 10
360.32015877218311
 20
32.37721761408352
 30
0.0
  0
SEQEND
  5
283
  8
DATA
  6
CONTINUOUS
 62
     7
  0
POLYLINE
  5
F8
  8
DATA
  6
CONTINUOUS
 62
     7
 66
     1
 10
0.0
 20
0.0
 30
0.0
 70
     1
  0
VERTEX
  5
284
  8
DATA
  6
CONTINUOUS
 62
     7
 10
334.92015877218307
 20
32.37721761408352
 30
0.0
  0
VERTEX
  5
285
  8
DATA
  6
CONTINUOUS
 62
     7
 10
359.32025877218308
 20
32.37721761408352
 30
0.0
  0
VERTEX
  5
286
  8
DATA
  6
CONTINUOUS
 62
     7
 10
359.32025877218308
 20
47.377217614083513
 30
0.0
  0
VERTEX
  5
287
  8
DATA
  6
CONTINUOUS
 62
     7
 10
334.92015877218307
 20
47.377217614083513
 30
0.0
  0
VERTEX
  5
288
  8
DATA
  6
CONTINUOUS
 62
     7
 10
334.92015877218307
 20
32.37721761408352
 30
0.0
  0
SEQEND
  5
289
  8
DATA
  6
CONTINUOUS
 62
     7
  0
POLYLINE
  5
100
  8
DATA
  6
CONTINUOUS
 62
     7
 66
     1
 10
0.0
 20
0.0
 30
0.0
 70
     1
  0
VERTEX
  5
28A
  8
DATA
  6
CONTINUOUS
 62
     7
 10
309.52015877218309
 20
32.37721761408352
 30
0.0
  0
VERTEX
  5
28B
  8
DATA
  6
CONTINUOUS
 62
     7
 10
333.92025877218299
 20
32.37721761408352
 30
0.0
  0
VERTEX
  5
28C
  8
DATA
  6
CONTINUOUS
 62
     7
 10
333.92025877218299
 20
47.377217614083513
 30
0.0
  0
VERTEX
  5
28D
  8
DATA
  6
CONTINUOUS
 62
     7
 10
309.52015877218309
 20
47.377217614083513
 30
0.0
  0
VERTEX
  5
28E
  8
DATA
  6
CONTINUOUS
 62
     7
 10
309.52015877218309
 20
32.37721761408352
 30
0.0
  0
SEQEND
  5
28F
  8
DATA
  6
CONTINUOUS
 62
     7
  0
POLYLINE
  5
108
  8
DATA
  6
CONTINUOUS
 62
     7
 66
     1
 10
0.0
 20
0.0
 30
0.0
 70
     1
  0
VERTEX
  5
290
  8
DATA
  6
CONTINUOUS
 62
     7
 10
284.12015877218312
 20
32.37721761408352
 30
0.0
  0
VERTEX
  5
291
  8
DATA
  6
CONTINUOUS
 62
     7
 10
308.52025877218301
 20
32.37721761408352
 30
0.0
  0
VERTEX
  5
292
  8
DATA
  6
CONTINUOUS
 62
     7
 10
308.52025877218301
 20
47.377217614083513
 30
0.0
  0
VERTEX
  5
293
  8
DATA
  6
CONTINUOUS
 62
     7
 10
284.12015877218312
 20
47.377217614083513
 30
0.0
  0
VERTEX
  5
294
  8
DATA
  6
CONTINUOUS
 62
     7
 10
284.12015877218312
 20
32.37721761408352
 30
0.0
  0
SEQEND
  5
295
  8
DATA
  6
CONTINUOUS
 62
     7
  0
POLYLINE
  5
110
  8
DATA
  6
CONTINUOUS
 62
     7
 66
     1
 10
0.0
 20
0.0
 30
0.0
 70
     1
  0
VERTEX
  5
296
  8
DATA
  6
CONTINUOUS
 62
     7
 10
258.72015877218308
 20
32.37721761408352
 30
0.0
  0
VERTEX
  5
297
  8
DATA
  6
CONTINUOUS
 62
     7
 10
283.12025877218309
 20
32.37721761408352
 30
0.0
  0
VERTEX
  5
298
  8
DATA
  6
CONTINUOUS
 62
     7
 10
283.12025877218309
 20
47.377217614083513
 30
0.0
  0
VERTEX
  5
299
  8
DATA
  6
CONTINUOUS
 62
     7
 10
258.72015877218308
 20
47.377217614083513
 30
0.0
  0
VERTEX
  5
29A
  8
DATA
  6
CONTINUOUS
 62
     7
 10
258.72015877218308
 20
32.37721761408352
 30
0.0
  0
SEQEND
  5
29B
  8
DATA
  6
CONTINUOUS
 62
     7
  0
POLYLINE
  5
118
  8
DATA
  6
CONTINUOUS
 62
     7
 66
     1
 10
0.0
 20
0.0
 30
0.0
 70
     1
  0
VERTEX
  5
29C
  8
DATA
  6
CONTINUOUS
 62
     7
 10
233.32015877218311
 20
32.37721761408352
 30
0.0
  0
VERTEX
  5
29D
  8
DATA
  6
CONTINUOUS
 62
     7
 10
257.72025877218312
 20
32.37721761408352
 30
0.0
  0
VERTEX
  5
29E
  8
DATA
  6
CONTINUOUS
 62
     7
 10
257.72025877218312
 20
47.377217614083513
 30
0.0
  0
VERTEX
  5
29F
  8
DATA
  6
CONTINUOUS
 62
     7
 10
233.32015877218311
 20
47.377217614083513
 30
0.0
  0
VERTEX
  5
2A0
  8
DATA
  6
CONTINUOUS
 62
     7
 10
233.32015877218311
 20
32.37721761408352
 30
0.0
  0
SEQEND
  5
2A1
  8
DATA
  6
CONTINUOUS
 62
     7
  0
POLYLINE
  5
120
  8
DATA
  6
CONTINUOUS
 62
     7
 66
     1
 10
0.0
 20
0.0
 30
0.0
 70
     1
  0
VERTEX
  5
2A2
  8
DATA
  6
CONTINUOUS
 62
     7
 10
207.92015877218299
 20
32.37721761408352
 30
0.0
  0
VERTEX
  5
2A3
  8
DATA
  6
CONTINUOUS
 62
     7
 10
232.320258772183
 20
32.37721761408352
 30
0.0
  0
VERTEX
  5
2A4
  8
DATA
  6
CONTINUOUS
 62
     7
 10
232.320258772183
 20
47.377217614083513
 30
0.0
  0
VERTEX
  5
2A5
  8
DATA
  6
CONTINUOUS
 62
     7
 10
207.92015877218299
 20
47.377217614083513
 30
0.0
  0
VERTEX
  5
2A6
  8
DATA
  6
CONTINUOUS
 62
     7
 10
207.92015877218299
 20
32.37721761408352
 30
0.0
  0
SEQEND
  5
2A7
  8
DATA
  6
CONTINUOUS
 62
     7
  0
POLYLINE
  5
128
  8
DATA
  6
CONTINUOUS
 62
     7
 66
     1
 10
0.0
 20
0.0
 30
0.0
 70
     1
  0
VERTEX
  5
2A8
  8
DATA
  6
CONTINUOUS
 62
     7
 10
182.52015877218301
 20
32.37721761408352
 30
0.0
  0
VERTEX
  5
2A9
  8
DATA
  6
CONTINUOUS
 62
     7
 10
206.92025877218299
 20
32.37721761408352
 30
0.0
  0
VERTEX
  5
2AA
  8
DATA
  6
CONTINUOUS
 62
     7
 10
206.92025877218299
 20
47.377217614083513
 30
0.0
  0
VERTEX
  5
2AB
  8
DATA
  6
CONTINUOUS
 62
     7
 10
182.52015877218301
 20
47.377217614083513
 30
0.0
  0
VERTEX
  5
2AC
  8
DATA
  6
CONTINUOUS
 62
     7
 10
182.52015877218301
 20
32.37721761408352
 30
0.0
  0
SEQEND
  5
2AD
  8
DATA
  6
CONTINUOUS
 62
     7
  0
POLYLINE
  5
130
  8
DATA
  6
CONTINUOUS
 62
     7
 66
     1
 10
0.0
 20
0.0
 30
0.0
 70
     1
  0
VERTEX
  5
2AE
  8
DATA
  6
CONTINUOUS
 62
     7
 10
157.120158772183
 20
32.37721761408352
 30
0.0
  0
VERTEX
  5
2AF
  8
DATA
  6
CONTINUOUS
 62
     7
 10
181.5202587721831
 20
32.37721761408352
 30
0.0
  0
VERTEX
  5
2B0
  8
DATA
  6
CONTINUOUS
 62
     7
 10
181.5202587721831
 20
47.377217614083513
 30
0.0
  0
VERTEX
  5
2B1
  8
DATA
  6
CONTINUOUS
 62
     7
 10
157.120158772183
 20
47.377217614083513
 30
0.0
  0
VERTEX
  5
2B2
  8
DATA
  6
CONTINUOUS
 62
     7
 10
157.120158772183
 20
32.37721761408352
 30
0.0
  0
SEQEND
  5
2B3
  8
DATA
  6
CONTINUOUS
 62
     7
  0
POLYLINE
  5
138
  8
DATA
  6
CONTINUOUS
 62
     7
 66
     1
 10
0.0
 20
0.0
 30
0.0
 70
     1
  0
VERTEX
  5
2B4
  8
DATA
  6
CONTINUOUS
 62
     7
 10
131.72015877218311
 20
32.37721761408352
 30
0.0
  0
VERTEX
  5
2B5
  8
DATA
  6
CONTINUOUS
 62
     7
 10
156.12025877218309
 20
32.37721761408352
 30
0.0
  0
VERTEX
  5
2B6
  8
DATA
  6
CONTINUOUS
 62
     7
 10
156.12025877218309
 20
47.377217614083513
 30
0.0
  0
VERTEX
  5
2B7
  8
DATA
  6
CONTINUOUS
 62
     7
 10
131.72015877218311
 20
47.377217614083513
 30
0.0
  0
VERTEX
  5
2B8
  8
DATA
  6
CONTINUOUS
 62
     7
 10
131.72015877218311
 20
32.37721761408352
 30
0.0
  0
SEQEND
  5
2B9
  8
DATA
  6
CONTINUOUS
 62
     7
  0
POLYLINE
  5
140
  8
DATA
  6
CONTINUOUS
 62
     7
 66
     1
 10
0.0
 20
0.0
 30
0.0
 70
     1
  0
VERTEX
  5
2BA
  8
DATA
  6
CONTINUOUS
 62
     7
 10
106.32015877218301
 20
32.37721761408352
 30
0.0
  0
VERTEX
  5
2BB
  8
DATA
  6
CONTINUOUS
 62
     7
 10
130.72025877218309
 20
32.37721761408352
 30
0.0
  0
VERTEX
  5
2BC
  8
DATA
  6
CONTINUOUS
 62
     7
 10
130.72025877218309
 20
47.377217614083513
 30
0.0
  0
VERTEX
  5
2BD
  8
DATA
  6
CONTINUOUS
 62
     7
 10
106.32015877218301
 20
47.377217614083513
 30
0.0
  0
VERTEX
  5
2BE
  8
DATA
  6
CONTINUOUS
 62
     7
 10
106.32015877218301
 20
32.37721761408352
 30
0.0
  0
SEQEND
  5
2BF
  8
DATA
  6
CONTINUOUS
 62
     7
  0
POLYLINE
  5
148
  8
DATA
  6
CONTINUOUS
 62
     7
 66
     1
 10
0.0
 20
0.0
 30
0.0
 70
     1
  0
VERTEX
  5
2C0
  8
DATA
  6
CONTINUOUS
 62
     7
 10
80.920158772183186
 20
32.37721761408352
 30
0.0
  0
VERTEX
  5
2C1
  8
DATA
  6
CONTINUOUS
 62
     7
 10
105.320258772183
 20
32.37721761408352
 30
0.0
  0
VERTEX
  5
2C2
  8
DATA
  6
CONTINUOUS
 62
     7
 10
105.320258772183
 20
47.377217614083513
 30
0.0
  0
VERTEX
  5
2C3
  8
DATA
  6
CONTINUOUS
 62
     7
 10
80.920158772183186
 20
47.377217614083513
 30
0.0
  0
VERTEX
  5
2C4
  8
DATA
  6
CONTINUOUS
 62
     7
 10
80.920158772183186
 20
32.37721761408352
 30
0.0
  0
SEQEND
  5
2C5
  8
DATA
  6
CONTINUOUS
 62
     7
  0
POLYLINE
  5
150
  8
DATA
  6
CONTINUOUS
 62
     7
 66
     1
 10
0.0
 20
0.0
 30
0.0
 70
     1
  0
VERTEX
  5
2C6
  8
DATA
  6
CONTINUOUS
 62
     7
 10
55.520158772183102
 20
32.37721761408352
 30
0.0
  0
VERTEX
  5
2C7
  8
DATA
  6
CONTINUOUS
 62
     7
 10
79.920258772183047
 20
32.37721761408352
 30
0.0
  0
VERTEX
  5
2C8
  8
DATA
  6
CONTINUOUS
 62
     7
 10
79.920258772183047
 20
47.377217614083513
 30
0.0
  0
VERTEX
  5
2C9
  8
DATA
  6
CONTINUOUS
 62
     7
 10
55.520158772183102
 20
47.377217614083513
 30
0.0
  0
VERTEX
  5
2CA
  8
DATA
  6
CONTINUOUS
 62
     7
 10
55.520158772183102
 20
32.37721761408352
 30
0.0
  0
SEQEND
  5
2CB
  8
DATA
  6
CONTINUOUS
 62
     7
  0
POLYLINE
  5
158
  8
DATA
  6
CONTINUOUS
 62
     7
 66
     1
 10
0.0
 20
0.0
 30
0.0
 70
     1
  0
VERTEX
  5
2CC
  8
DATA
  6
CONTINUOUS
 62
     7
 10
726.08015877218293
 20
32.37721761408352
 30
0.0
  0
VERTEX
  5
2CD
  8
DATA
  6
CONTINUOUS
 62
     7
 10
750.48025877218299
 20
32.37721761408352
 30
0.0
  0
VERTEX
  5
2CE
  8
DATA
  6
CONTINUOUS
 62
     7
 10
750.48025877218299
 20
47.377217614083513
 30
0.0
  0
VERTEX
  5
2CF
  8
DATA
  6
CONTINUOUS
 62
     7
 10
726.08015877218293
 20
47.377217614083513
 30
0.0
  0
VERTEX
  5
2D0
  8
DATA
  6
CONTINUOUS
 62
     7
 10
726.08015877218293
 20
32.37721761408352
 30
0.0
  0
SEQEND
  5
2D1
  8
DATA
  6
CONTINUOUS
 62
     7
  0
POLYLINE
  5
160
  8
DATA
  6
CONTINUOUS
 62
     7
 66
     1
 10
0.0
 20
0.0
 30
0.0
 70
     1
  0
VERTEX
  5
2D2
  8
DATA
  6
CONTINUOUS
 62
     7
 10
700.68015877218295
 20
32.37721761408352
 30
0.0
  0
VERTEX
  5
2D3
  8
DATA
  6
CONTINUOUS
 62
     7
 10
725.08025877218313
 20
32.37721761408352
 30
0.0
  0
VERTEX
  5
2D4
  8
DATA
  6
CONTINUOUS
 62
     7
 10
725.08025877218313
 20
47.377217614083513
 30
0.0
  0
VERTEX
  5
2D5
  8
DATA
  6
CONTINUOUS
 62
     7
 10
700.68015877218295
 20
47.377217614083513
 30
0.0
  0
VERTEX
  5
2D6
  8
DATA
  6
CONTINUOUS
 62
     7
 10
700.68015877218295
 20
32.37721761408352
 30
0.0
  0
SEQEND
  5
2D7
  8
DATA
  6
CONTINUOUS
 62
     7
  0
POLYLINE
  5
168
  8
DATA
  6
CONTINUOUS
 62
     7
 66
     1
 10
0.0
 20
0.0
 30
0.0
 70
     1
  0
VERTEX
  5
2D8
  8
DATA
  6
CONTINUOUS
 62
     7
 10
675.28015877218309
 20
32.37721761408352
 30
0.0
  0
VERTEX
  5
2D9
  8
DATA
  6
CONTINUOUS
 62
     7
 10
699.68025877218315
 20
32.37721761408352
 30
0.0
  0
VERTEX
  5
2DA
  8
DATA
  6
CONTINUOUS
 62
     7
 10
699.68025877218315
 20
47.377217614083513
 30
0.0
  0
VERTEX
  5
2DB
  8
DATA
  6
CONTINUOUS
 62
     7
 10
675.28015877218309
 20
47.377217614083513
 30
0.0
  0
VERTEX
  5
2DC
  8
DATA
  6
CONTINUOUS
 62
     7
 10
675.28015877218309
 20
32.37721761408352
 30
0.0
  0
SEQEND
  5
2DD
  8
DATA
  6
CONTINUOUS
 62
     7
  0
POLYLINE
  5
170
  8
DATA
  6
CONTINUOUS
 62
     7
 66
     1
 10
0.0
 20
0.0
 30
0.0
 70
     1
  0
VERTEX
  5
2DE
  8
DATA
  6
CONTINUOUS
 62
     7
 10
649.88015877218311
 20
32.37721761408352
 30
0.0
  0
VERTEX
  5
2DF
  8
DATA
  6
CONTINUOUS
 62
     7
 10
674.28025877218317
 20
32.37721761408352
 30
0.0
  0
VERTEX
  5
2E0
  8
DATA
  6
CONTINUOUS
 62
     7
 10
674.28025877218317
 20
47.377217614083513
 30
0.0
  0
VERTEX
  5
2E1
  8
DATA
  6
CONTINUOUS
 62
     7
 10
649.88015877218311
 20
47.377217614083513
 30
0.0
  0
VERTEX
  5
2E2
  8
DATA
  6
CONTINUOUS
 62
     7
 10
649.88015877218311
 20
32.37721761408352
 30
0.0
  0
SEQEND
  5
2E3
  8
DATA
  6
CONTINUOUS
 62
     7
  0
POLYLINE
  5
178
  8
DATA
  6
CONTINUOUS
 62
     7
 66
     1
 10
0.0
 20
0.0
 30
0.0
 70
     1
  0
VERTEX
  5
2E4
  8
DATA
  6
CONTINUOUS
 62
     7
 10
624.48015877218313
 20
32.37721761408352
 30
0.0
  0
VERTEX
  5
2E5
  8
DATA
  6
CONTINUOUS
 62
     7
 10
648.88025877218308
 20
32.37721761408352
 30
0.0
  0
VERTEX
  5
2E6
  8
DATA
  6
CONTINUOUS
 62
     7
 10
648.88025877218308
 20
47.377217614083513
 30
0.0
  0
VERTEX
  5
2E7
  8
DATA
  6
CONTINUOUS
 62
     7
 10
624.48015877218313
 20
47.377217614083513
 30
0.0
  0
VERTEX
  5
2E8
  8
DATA
  6
CONTINUOUS
 62
     7
 10
624.48015877218313
 20
32.37721761408352
 30
0.0
  0
SEQEND
  5
2E9
  8
DATA
  6
CONTINUOUS
 62
     7
  0
POLYLINE
  5
180
  8
DATA
  6
CONTINUOUS
 62
     7
 66
     1
 10
0.0
 20
0.0
 30
0.0
 70
     1
  0
VERTEX
  5
2EA
  8
DATA
  6
CONTINUOUS
 62
     7
 10
411.12015877218312
 20
32.37721761408352
 30
0.0
  0
VERTEX
  5
2EB
  8
DATA
  6
CONTINUOUS
 62
     7
 10
435.52025877218313
 20
32.37721761408352
 30
0.0
  0
VERTEX
  5
2EC
  8
DATA
  6
CONTINUOUS
 62
     7
 10
435.52025877218313
 20
47.377217614083513
 30
0.0
  0
VERTEX
  5
2ED
  8
DATA
  6
CONTINUOUS
 62
     7
 10
411.12015877218312
 20
47.377217614083513
 30
0.0
  0
VERTEX
  5
2EE
  8
DATA
  6
CONTINUOUS
 62
     7
 10
411.12015877218312
 20
32.37721761408352
 30
0.0
  0
SEQEND
  5
2EF
  8
DATA
  6
CONTINUOUS
 62
     7
  0
POLYLINE
  5
188
  8
DATA
  6
CONTINUOUS
 62
     7
 66
     1
 10
0.0
 20
0.0
 30
0.0
 70
     1
  0
VERTEX
  5
2F0
  8
DATA
  6
CONTINUOUS
 62
     7
 10
385.72015877218308
 20
32.37721761408352
 30
0.0
  0
VERTEX
  5
2F1
  8
DATA
  6
CONTINUOUS
 62
     7
 10
410.12025877218309
 20
32.37721761408352
 30
0.0
  0
VERTEX
  5
2F2
  8
DATA
  6
CONTINUOUS
 62
     7
 10
410.12025877218309
 20
47.377217614083513
 30
0.0
  0
VERTEX
  5
2F3
  8
DATA
  6
CONTINUOUS
 62
     7
 10
385.72015877218308
 20
47.377217614083513
 30
0.0
  0
VERTEX
  5
2F4
  8
DATA
  6
CONTINUOUS
 62
     7
 10
385.72015877218308
 20
32.37721761408352
 30
0.0
  0
SEQEND
  5
2F5
  8
DATA
  6
CONTINUOUS
 62
     7
  0
LINE
  5
190
  8
DATA
  6
CONTINUOUS
 62
     7
 10
825.20021830336123
 20
1.2474840150811131
 30
0.0
 11
30.600192322681782
 21
1.2474840150811131
 31
0.0
  0
LINE
  5
191
  8
DATA
  6
CONTINUOUS
 62
     7
 10
30.600192322681782
 20
500.4488293369501
 30
0.0
 11
824.90021830336218
 21
500.4488293369501
 31
0.0
  0
LINE
  5
192
  8
DATA
  6
CONTINUOUS
 62
     7
 10
55.520158772183102
 20
47.377217614083513
 30
0.0
 11
55.520158772183102
 21
479.2780176140833
 31
0.0
  0
LINE
  5
193
  8
DATA
  6
CONTINUOUS
 62
     7
 10
825.20021830336123
 20
35.45316356496415
 30
0.0
 11
825.20021830336123
 21
467.34882933695019
 31
0.0
  0
LINE
  5
194
  8
DATA
  6
CONTINUOUS
 62
     7
 10
840.20021830336123
 20
1.7349460261959839
 30
0.0
 11
840.20021830336123
 21
500.6627126477045
 31
0.0
  0
LINE
  5
195
  8
DATA
  6
CONTINUOUS
 62
     7
 10
825.20021830336123
 20
0.0
 30
0.0
 11
825.20021830336123
 21
503.0
 31
0.0
  0
ARC
  5
196
  8
DATA
  6
CONTINUOUS
 62
     7
 10
-3696.8984139557519
 20
378.30179069119077
 30
0.0
 40
4552.6988245817956
 50
355.25548050018278
 51
0.0000000000033538
  0
ARC
  5
197
  8
DATA
  6
CONTINUOUS
 62
     7
 10
843.48600823205095
 20
489.60149168292151
 30
0.0
 40
10.87409698794732
 50
5.1844139596426047
 51
87.000000000000455
  0
ARC
  5
198
  8
DATA
  6
CONTINUOUS
 62
     7
 10
-3390.4264042737659
 20
378.30179069119629
 30
0.0
 40
4246.2268148998091
 50
0.0000000000034106
 51
1.515239831925896
  0
LINE
  5
199
  8
DATA
  6
CONTINUOUS
 62
     7
 10
844.05511449619382
 20
500.46068609887141
 30
0.0
 11
825.20021830336123
 21
501.44882933695021
 31
0.0
  0
LINE
  5
19A
  8
DATA
  6
CONTINUOUS
 62
     7
 10
30.600192322681782
 20
35.45316356496415
 30
0.0
 11
30.600192322681782
 21
467.34882933695019
 31
0.0
  0
LINE
  5
19B
  8
DATA
  6
CONTINUOUS
 62
     7
 10
15.60019232268178
 20
1.7349460261959839
 30
0.0
 11
15.60019232268178
 21
500.6627126477045
 31
0.0
  0
LINE
  5
19C
  8
DATA
  6
CONTINUOUS
 62
     7
 10
30.600192322681782
 20
0.9488293369499844
 30
0.0
 11
30.600192322681782
 21
501.44882933695021
 31
0.0
  0
ARC
  5
19D
  8
DATA
  6
CONTINUOUS
 62
     7
 10
4552.6988245817938
 20
378.30179069119077
 30
0.0
 40
4552.6988245817938
 50
179.99999999999659
 51
184.74451949981719
  0
ARC
  5
19E
  8
DATA
  6
CONTINUOUS
 62
     7
 10
12.31440239399217
 20
489.60149168292151
 30
0.0
 40
10.87409698794727
 50
92.999999999999545
 51
174.8155860403574
  0
ARC
  5
19F
  8
DATA
  6
CONTINUOUS
 62
     7
 10
4246.2268148998073
 20
378.30179069119629
 30
0.0
 40
4246.2268148998073
 50
178.4847601680741
 51
179.99999999999659
  0
LINE
  5
1A0
  8
DATA
  6
CONTINUOUS
 62
     7
 10
11.745296129849059
 20
500.46068609887141
 30
0.0
 11
30.600192322681782
 21
501.44882933695021
 31
0.0
  0
LINE
  5
1A1
  8
DATA
  6
CONTINUOUS
 62
     7
 10
30.600192322681782
 20
35.45316356496415
 30
0.0
 11
30.600192322681782
 21
467.34882933695019
 31
0.0
  0
LINE
  5
1A2
  8
DATA
  6
CONTINUOUS
 62
     7
 10
15.60019232268178
 20
1.7349460261959839
 30
0.0
 11
15.60019232268178
 21
500.6627126477045
 31
0.0
  0
LINE
  5
1A3
  8
DATA
  6
CONTINUOUS
 62
     7
 10
30.600192322681782
 20
0.0
 30
0.0
 11
30.600192322681782
 21
503.0
 31
0.0
  0
ARC
  5
1A4
  8
DATA
  6
CONTINUOUS
 62
     7
 10
4552.6988245817938
 20
378.30179069119077
 30
0.0
 40
4552.6988245817938
 50
179.99999999999659
 51
184.74451949981719
  0
ARC
  5
1A5
  8
DATA
  6
CONTINUOUS
 62
     7
 10
12.31440239399217
 20
489.60149168292151
 30
0.0
 40
10.87409698794727
 50
92.999999999999545
 51
174.8155860403574
  0
ARC
  5
1A6
  8
DATA
  6
CONTINUOUS
 62
     7
 10
4246.2268148998073
 20
378.30179069119629
 30
0.0
 40
4246.2268148998073
 50
178.4847601680741
 51
179.99999999999659
  0
LINE
  5
1A7
  8
DATA
  6
CONTINUOUS
 62
     7
 10
11.745296129849059
 20
500.46068609887141
 30
0.0
 11
30.600192322681782
 21
501.44882933695021
 31
0.0
  0
LINE
  5
1A8
  8
DATA
  6
CONTINUOUS
 62
     7
 10
825.20021830336123
 20
503.0
 30
0.0
 11
30.600192322681782
 21
503.0
 31
0.0
  0
LINE
  5
1A9
  8
DATA
  6
CONTINUOUS
 62
     7
 10
825.20021830336123
 20
0.0
 30
0.0
 11
840.20021830335622
 21
1.734946026153465
 31
0.0
  0
LINE
  5
1AA
  8
DATA
  6
CONTINUOUS
 62
     7
 10
30.600192322681782
 20
0.0
 30
0.0
 11
15.60019232268678
 21
1.734946026153465
 31
0.0
  0
LINE
  5
1AB
  8
DATA
  6
CONTINUOUS
 62
     7
 10
31.800209263133748
 20
-513.16219117466915
 30
0.0
 11
825.19631094942895
 21
-513.16219117466915
 31
0.0
  0
LINE
  5
1AC
  8
DATA
  6
CONTINUOUS
 62
     7
 10
30.056294008974309
 20
-426.0
 30
0.0
 11
825.19629400897793
 21
-426.0
 31
0.0
  0
LINE
  5
1AD
  8
DATA
  6
CONTINUOUS
 62
     7
 10
36.800209263133752
 20
-600.0
 30
0.0
 11
55.000209263133677
 21
-600.0
 31
0.0
  0
LINE
  5
1AE
  8
DATA
  6
CONTINUOUS
 62
     7
 10
35.900209263133661
 20
-590.0
 30
0.0
 11
55.900209263133661
 21
-590.0
 31
0.0
  0
LINE
  5
1AF
  8
DATA
  6
CONTINUOUS
 62
     7
 10
55.900209263133661
 20
-590.0
 30
0.0
 11
55.000209263133677
 21
-600.0
 31
0.0
  0
LINE
  5
1B0
  8
DATA
  6
CONTINUOUS
 62
     7
 10
35.900209263133661
 20
-590.0
 30
0.0
 11
36.800209263133752
 21
-600.0
 31
0.0
  0
LINE
  5
1B1
  8
DATA
  6
CONTINUOUS
 62
     7
 10
32.600209263133699
 20
-590.0
 30
0.0
 11
823.1962940089777
 21
-590.0
 31
0.0
  0
LINE
  5
1B2
  8
DATA
  6
CONTINUOUS
 62
     7
 10
30.600192322682801
 20
-563.61999999999978
 30
0.0
 11
825.19631094942895
 21
-563.61999999999978
 31
0.0
  0
LINE
  5
1B3
  8
DATA
  6
CONTINUOUS
 62
     7
 10
30.60020926313371
 20
-587.59999999999968
 30
0.0
 11
30.600209263133479
 21
-426.0
 31
0.0
  0
LINE
  5
1B4
  8
DATA
  6
CONTINUOUS
 62
     7
 10
0.0
 20
-546.45378024691013
 30
0.0
 11
30.600192322682801
 21
-564.12080952166491
 31
0.0
  0
LINE
  5
1B5
  8
DATA
  6
CONTINUOUS
 62
     7
 10
15.60019232268303
 20
-429.10632056734647
 30
0.0
 11
0.0
 21
-546.45378024691013
 31
0.0
  0
LINE
  5
1B6
  8
DATA
  6
CONTINUOUS
 62
     7
 10
30.600192322682801
 20
-564.12080952166491
 30
0.0
 11
30.600192322682801
 21
-454.8428958396637
 31
0.0
  0
ARC
  5
1B7
  8
DATA
  6
CONTINUOUS
 62
     7
 10
33.216990134830091
 20
-475.90000000000009
 30
0.0
 40
50.000000000000071
 50
93.000000000002217
 51
110.63025936331159
  0
LINE
  5
1B8
  8
DATA
  6
CONTINUOUS
 62
     7
 10
819.5402092631374
 20
-600.0
 30
0.0
 11
801.34020926313747
 21
-600.0
 31
0.0
  0
LINE
  5
1B9
  8
DATA
  6
CONTINUOUS
 62
     7
 10
820.44020926313783
 20
-590.0
 30
0.0
 11
800.44020926313772
 21
-590.0
 31
0.0
  0
LINE
  5
1BA
  8
DATA
  6
CONTINUOUS
 62
     7
 10
800.44020926313772
 20
-590.0
 30
0.0
 11
801.34020926313747
 21
-600.0
 31
0.0
  0
LINE
  5
1BB
  8
DATA
  6
CONTINUOUS
 62
     7
 10
820.44020926313783
 20
-590.0
 30
0.0
 11
819.5402092631374
 21
-600.0
 31
0.0
  0
LINE
  5
1BC
  8
DATA
  6
CONTINUOUS
 62
     7
 10
30.60020926313371
 20
-588.0
 30
0.0
 11
30.600209263133479
 21
-426.0
 31
0.0
  0
LINE
  5
1BD
  8
DATA
  6
CONTINUOUS
 62
     7
 10
0.0
 20
-546.45378024691013
 30
0.0
 11
30.600192322682801
 21
-564.12080952166491
 31
0.0
  0
LINE
  5
1BE
  8
DATA
  6
CONTINUOUS
 62
     7
 10
15.60019232268303
 20
-429.10632056734647
 30
0.0
 11
0.0
 21
-546.45378024691013
 31
0.0
  0
LINE
  5
1BF
  8
DATA
  6
CONTINUOUS
 62
     7
 10
30.600192322682801
 20
-564.12080952166491
 30
0.0
 11
30.600192322682801
 21
-454.8428958396637
 31
0.0
  0
ARC
  5
1C0
  8
DATA
  6
CONTINUOUS
 62
     7
 10
33.216990134830091
 20
-475.90000000000009
 30
0.0
 40
50.000000000000071
 50
93.000000000002217
 51
110.63025936331159
  0
ARC
  5
1C1
  8
DATA
  6
CONTINUOUS
 62
     7
 10
32.600209263133699
 20
-588.0
 30
0.0
 40
2.0
 50
180.0
 51
270.0
  0
LINE
  5
1C2
  8
DATA
  6
CONTINUOUS
 62
     7
 10
825.19629400897793
 20
-588.0
 30
0.0
 11
825.19629400897816
 21
-426.0
 31
0.0
  0
LINE
  5
1C3
  8
DATA
  6
CONTINUOUS
 62
     7
 10
855.79650327211152
 20
-546.45378024691013
 30
0.0
 11
825.19631094942895
 21
-564.12080952166491
 31
0.0
  0
LINE
  5
1C4
  8
DATA
  6
CONTINUOUS
 62
     7
 10
840.19631094942849
 20
-429.10632056734647
 30
0.0
 11
855.79650327211152
 21
-546.45378024691013
 31
0.0
  0
LINE
  5
1C5
  8
DATA
  6
CONTINUOUS
 62
     7
 10
825.19631094942895
 20
-564.12080952166491
 30
0.0
 11
825.19631094942895
 21
-454.8428958396637
 31
0.0
  0
ARC
  5
1C6
  8
DATA
  6
CONTINUOUS
 62
     7
 10
822.57951313728165
 20
-475.90000000000009
 30
0.0
 40
50.000000000000142
 50
69.369740636688391
 51
86.999999999997783
  0
ARC
  5
1C7
  8
DATA
  6
CONTINUOUS
 62
     7
 10
823.1962940089777
 20
-588.0
 30
0.0
 40
2.0
 50
270.0
 51
0.0
  0
LINE
  5
1C8
  8
DATA
  6
CONTINUOUS
 62
     7
 10
1331.5938017120641
 20
11.37517203276434
 30
0.0
 11
1323.6388242138121
 21
290.53775574584432
 31
0.0
  0
LINE
  5
1C9
  8
DATA
  6
CONTINUOUS
 62
     7
 10
1340.379282503498
 20
285.10440730617643
 30
0.0
 11
1340.379282503498
 21
10.72976432280427
 31
0.0
  0
LINE
  5
1CA
  8
DATA
  6
CONTINUOUS
 62
     7
 10
1202.53349379272
 20
490.98967441811197
 30
0.0
 11
1288.7439503373109
 21
2.0658795558327929
 31
0.0
  0
LINE
  5
1CB
  8
DATA
  6
CONTINUOUS
 62
     7
 10
1331.5938017120641
 20
11.375172032764111
 30
0.0
 11
1323.6388242138121
 21
290.53775574584392
 31
0.0
  0
LINE
  5
1CC
  8
DATA
  6
CONTINUOUS
 62
     7
 10
1205.764158837972
 20
490.7375169842561
 30
0.0
 11
1291.4709999128411
 21
4.6698673794894603
 31
0.0
  0
LINE
  5
1CD
  8
DATA
  6
CONTINUOUS
 62
     7
 10
1340.3792825034859
 20
34.882845633638908
 30
0.0
 11
1365.0584729818199
 21
34.882845633638908
 31
0.0
  0
LINE
  5
1CE
  8
DATA
  6
CONTINUOUS
 62
     7
 10
1376.25847298182
 20
58.982845633638817
 30
0.0
 11
1376.25847298182
 21
40.782845633638999
 31
0.0
  0
LINE
  5
1CF
  8
DATA
  6
CONTINUOUS
 62
     7
 10
1366.25847298182
 20
39.882845633639128
 30
0.0
 11
1376.25847298182
 21
40.782845633638999
 31
0.0
  0
ARC
  5
1D0
  8
DATA
  6
CONTINUOUS
 62
     7
 10
1365.0584729818199
 20
36.082845633639188
 30
0.0
 40
1.200000000000045
 50
270.0
 51
0.0
  0
LINE
  5
1D1
  8
DATA
  6
CONTINUOUS
 62
     7
 10
1366.25847298182
 20
59.882845633638887
 30
0.0
 11
1376.25847298182
 21
58.982845633638817
 31
0.0
  0
LINE
  5
1D2
  8
DATA
  6
CONTINUOUS
 62
     7
 10
1294.3671397395381
 20
2.6419684411262092
 30
0.0
 11
1329.528936555937
 21
8.8419419100462164
 31
0.0
  0
ARC
  5
1D3
  8
DATA
  6
CONTINUOUS
 62
     7
 10
1329.094816111769
 20
11.30396129257678
 30
0.0
 40
2.500000000000048
 50
279.99999999999972
 51
1.6322507207484589
  0
ARC
  5
1D4
  8
DATA
  6
CONTINUOUS
 62
     7
 10
1293.933019295371
 20
5.1039878236567802
 30
0.0
 40
2.500000000000087
 50
190.0000000000048
 51
279.99999999999972
  0
ARC
  5
1D5
  8
DATA
  6
CONTINUOUS
 62
     7
 10
1256.7648146302331
 20
327.39783257705687
 30
0.0
 40
173.0236842105229
 50
74.74252851112449
 51
100.0
  0
ARC
  5
1D6
  8
DATA
  6
CONTINUOUS
 62
     7
 10
1248.1176741896679
 20
308.5366054795798
 30
0.0
 40
189.4758929599115
 50
78.763454345643893
 51
96.432207467918261
  0
ARC
  5
1D7
  8
DATA
  6
CONTINUOUS
 62
     7
 10
729.67872652569611
 20
285.10440730620559
 30
0.0
 40
610.70055597780174
 50
359.99999999999818
 51
19.87872476504856
  0
ARC
  5
1D8
  8
DATA
  6
CONTINUOUS
 62
     7
 10
594.16705291663845
 20
259.67796101419901
 30
0.0
 40
730.90328687879867
 50
10.11827596625101
 51
18.59331073818193
  0
ARC
  5
1D9
  8
DATA
  6
CONTINUOUS
 62
     7
 10
651.94100579827557
 20
271.3971497231812
 30
0.0
 40
672.9763557945704
 50
1.6322507207523149
 51
9.4384291904990398
  0
ARC
  5
1DA
  8
DATA
  6
CONTINUOUS
 62
     7
 10
651.94100579827557
 20
271.3971497231812
 30
0.0
 40
671.97047707701131
 50
1.632250720752308
 51
10.000000000000011
  0
ARC
  5
1DB
  8
DATA
  6
CONTINUOUS
 62
     7
 10
651.94100579827557
 20
271.3971497231812
 30
0.0
 40
674.27635579457024
 50
1.6322507207523049
 51
9.4429268470176773
  0
ARC
  5
1DC
  8
DATA
  6
CONTINUOUS
 62
     7
 10
727.97298946179774
 20
284.80363983984557
 30
0.0
 40
610.70055597779594
 50
358.6678916978874
 51
10.0
  0
ARC
  5
1DD
  8
DATA
  6
CONTINUOUS
 62
     7
 10
1331.271119714881
 20
275.67623685575848
 30
0.0
 40
6.1999999999999202
 50
181.6322507207519
 51
279.54649238279762
  0
LINE
  5
1DE
  8
DATA
  6
CONTINUOUS
 62
     7
 10
1338.508496567169
 20
270.60632899675829
 30
0.0
 11
1331.373152391802
 21
270.60632899675829
 31
0.0
  0
LINE
  5
1DF
  8
DATA
  6
CONTINUOUS
 62
     7
 10
1338.508496567169
 20
270.60632899675829
 30
0.0
 11
1332.299376497165
 21
269.56209848721568
 31
0.0
  0
LINE
  5
1E0
  8
DATA
  6
CONTINUOUS
 62
     7
 10
1325.0736354261501
 20
275.49963422009409
 30
0.0
 11
1324.6442947861419
 21
290.56640749305018
 31
0.0
  0
LINE
  5
1E1
  8
DATA
  6
CONTINUOUS
 62
     7
 10
1326.3751811912121
 20
275.46390751638347
 30
0.0
 11
1325.9437672982949
 21
290.6034370779476
 31
0.0
  0
ARC
  5
1E2
  8
DATA
  6
CONTINUOUS
 62
     7
 10
1331.373152391802
 20
275.60632899675818
 30
0.0
 40
4.9999999999999982
 50
181.6322507207523
 51
270.0
  0
LINE
  5
1E3
  8
DATA
  6
CONTINUOUS
 62
     7
 10
1329.395631757596
 20
390.85067848557151
 30
0.0
 11
1320.3027391799781
 21
387.5411362439383
 31
0.0
  0
LINE
  5
1E4
  8
DATA
  6
CONTINUOUS
 62
     7
 10
1329.3956317575969
 20
390.85067848557111
 30
0.0
 11
1320.535550476659
 21
388.8164508391817
 31
0.0
  0
ARC
  5
1E5
  8
DATA
  6
CONTINUOUS
 62
     7
 10
1322.0128398966069
 20
382.84267314000863
 30
0.0
 40
4.9999999999999787
 50
110.0000000000008
 51
189.44292684701841
  0
ARC
  5
1E6
  8
DATA
  6
CONTINUOUS
 62
     7
 10
1321.922939945302
 20
382.77367412128962
 30
0.0
 40
6.2000000000000748
 50
102.9307069533599
 51
189.43842919049169
  0
LINE
  5
1E7
  8
DATA
  6
CONTINUOUS
 62
     7
 10
1286.459943031901
 20
494.09248502260527
 30
0.0
 11
1302.8344114117281
 21
494.10692082516681
 31
0.0
  0
ARC
  5
1E8
  8
DATA
  6
CONTINUOUS
 62
     7
 10
1301.639319632131
 20
491.91107118588371
 30
0.0
 40
2.500000000000044
 50
19.878724765050531
 51
74.742528511394383
  0
ARC
  5
1E9
  8
DATA
  6
CONTINUOUS
 62
     7
 10
1284.5517978249541
 20
491.92836969783752
 30
0.0
 40
2.5000000000000391
 50
18.593310738186911
 51
78.763454345651482
  0
LINE
  5
1EA
  8
DATA
  6
CONTINUOUS
 62
     7
 10
1226.7195671738571
 20
497.79289824231591
 30
0.0
 11
1204.5613927310831
 21
493.88581424480998
 31
0.0
  0
LINE
  5
1EB
  8
DATA
  6
CONTINUOUS
 62
     7
 10
1207.8148266279279
 20
493.63756319115112
 30
0.0
 11
1226.891156446424
 21
496.81976712036891
 31
0.0
  0
ARC
  5
1EC
  8
DATA
  6
CONTINUOUS
 62
     7
 10
1208.2261782205021
 20
491.1716374284232
 30
0.0
 40
2.4999999999999809
 50
99.470550187066436
 51
189.9999999999998
  0
ARC
  5
1ED
  8
DATA
  6
CONTINUOUS
 62
     7
 10
1204.9955131752499
 20
491.42379486227912
 30
0.0
 40
2.5000000000000582
 50
100.0000000000009
 51
189.9999999999998
  0
LINE
  5
1EE
  8
DATA
  6
CONTINUOUS
 62
     7
 10
1366.25847298182
 20
503.00272390778031
 30
0.0
 11
1366.25847298182
 21
36.082845633639188
 31
0.0
  0
LINE
  5
1EF
  8
DATA
  6
CONTINUOUS
 62
     7
 10
1366.25847298182
 20
472.11355085769861
 30
0.0
 11
1376.25847298182
 21
473.01355085769848
 31
0.0
  0
LINE
  5
1F0
  8
DATA
  6
CONTINUOUS
 62
     7
 10
1376.25847298182
 20
491.21355085769852
 30
0.0
 11
1376.25847298182
 21
473.01355085769848
 31
0.0
  0
LINE
  5
1F1
  8
DATA
  6
CONTINUOUS
 62
     7
 10
1366.25847298182
 20
492.11355085769861
 30
0.0
 11
1376.25847298182
 21
491.21355085769852
 31
0.0
  0
LINE
  5
1F2
  8
DATA
  6
CONTINUOUS
 62
     7
 10
1366.2584729818011
 20
503.00272390777712
 30
0.0
 11
1304.0539619766109
 21
492.03439029578561
 31
0.0
  0
LINE
  5
1F3
  8
DATA
  6
CONTINUOUS
 62
     7
 10
1204.7971281931441
 20
460.87565434729601
 30
0.0
 11
1202.886998238808
 21
471.70853963043021
 31
0.0
  0
LINE
  5
1F4
  8
DATA
  6
CONTINUOUS
 62
     7
 10
1190.836171473306
 20
459.4293876129712
 30
0.0
 11
1189.273337874303
 21
468.29265739008088
 31
0.0
  0
LINE
  5
1F5
  8
DATA
  6
CONTINUOUS
 62
     7
 10
1189.273337874303
 20
468.29265739008088
 30
0.0
 11
1200.555214989527
 21
470.53581337150371
 31
0.0
  0
LINE
  5
1F6
  8
DATA
  6
CONTINUOUS
 62
     7
 10
1190.836171473306
 20
459.4293876129712
 30
0.0
 11
1202.204872677363
 21
461.1801397178877
 31
0.0
  0
LINE
  5
1F7
  8
DATA
  6
CONTINUOUS
 62
     7
 10
1200.555214989527
 20
470.53581337150371
 30
0.0
 11
1202.886998238808
 21
471.70853963043021
 31
0.0
  0
LINE
  5
1F8
  8
DATA
  6
CONTINUOUS
 62
     7
 10
1202.204872677363
 20
461.1801397178877
 30
0.0
 11
1204.7971281931441
 21
460.87565434729601
 31
0.0
  0
LINE
  5
1F9
  8
DATA
  6
CONTINUOUS
 62
     7
 10
1190.5756992068059
 20
460.90659924248939
 30
0.0
 11
1189.533810140804
 21
466.81544576056251
 31
0.0
  0
ARC
  5
1FA
  8
DATA
  6
CONTINUOUS
 62
     7
 10
1193.9939856858541
 20
464.55561521219369
 30
0.0
 40
5.0000000000000151
 50
153.13010235415641
 51
226.86989764584399
  0
LINE
  5
1FB
  8
DATA
  6
CONTINUOUS
 62
     7
 10
1204.856613744832
 20
472.05583598576408
 30
0.0
 11
1205.8414214978441
 21
472.22948416343093
 31
0.0
  0
LINE
  5
1FC
  8
DATA
  6
CONTINUOUS
 62
     7
 10
1206.766743699168
 20
461.2229507026297
 30
0.0
 11
1207.751551452181
 21
461.39659888029672
 31
0.0
  0
LINE
  5
1FD
  8
DATA
  6
CONTINUOUS
 62
     7
 10
1204.856613744832
 20
472.05583598576408
 30
0.0
 11
1206.766743699168
 21
461.2229507026297
 31
0.0
  0
LINE
  5
1FE
  8
DATA
  6
CONTINUOUS
 62
     7
 10
1205.030261922499
 20
471.07102823275193
 30
0.0
 11
1203.060646416475
 21
470.723731877418
 31
0.0
  0
LINE
  5
1FF
  8
DATA
  6
CONTINUOUS
 62
     7
 10
1206.593095521501
 20
462.20775845564202
 30
0.0
 11
1204.6234800154771
 21
461.8604621003081
 31
0.0
  0
LINE
  5
200
  8
DATA
  6
CONTINUOUS
 62
     7
 10
1206.796486475012
 20
466.81304152186391
 30
0.0
 11
1189.069946920793
 21
463.68737432385922
 31
0.0
  0
LINE
  5
201
  8
DATA
  6
CONTINUOUS
 62
     7
 10
1291.6400901640091
 20
0.0379806174695432
 30
0.0
 11
1338.3134029476651
 21
8.2677449402737011
 31
0.0
  0
ARC
  5
202
  8
DATA
  6
CONTINUOUS
 62
     7
 10
1291.2059697198411
 20
2.5000000000001128
 30
0.0
 40
2.500000000000048
 50
189.9999999999996
 51
279.99999999999972
  0
ARC
  5
203
  8
DATA
  6
CONTINUOUS
 62
     7
 10
1337.879282503498
 20
10.72976432280427
 30
0.0
 40
2.500000000000048
 50
279.99999999999972
 51
0.0
  0
ENDSEC
  0
EOF
